  0
SECTION
  2
HEADER
  9
$ACADVER
  1
AC1015
  9
$ACADMAINTVER
 70
     6
  9
$DWGCODEPAGE
  3
ANSI_1252
  9
$INSBASE
 10
0.0
 20
0.0
 30
0.0
  9
$EXTMIN
 10
-105.0
 20
-6.000103215
 30
0.0
  9
$EXTMAX
 10
105.0
 20
6.000103215
 30
0.0
  9
$LIMMIN
 10
0.0
 20
0.0
  9
$LIMMAX
 10
420.0
 20
297.0
  9
$ORTHOMODE
 70
     0
  9
$REGENMODE
 70
     1
  9
$FILLMODE
 70
     1
  9
$QTEXTMODE
 70
     0
  9
$MIRRTEXT
 70
     1
  9
$LTSCALE
 40
1.0
  9
$ATTMODE
 70
     1
  9
$TEXTSIZE
 40
3.5
  9
$TRACEWID
 40
1.0
  9
$TEXTSTYLE
  7
Standard
  9
$CLAYER
  8
0
  9
$CELTYPE
  6
ByLayer
  9
$CECOLOR
 62
   256
  9
$CELTSCALE
 40
1.0
  9
$DISPSILH
 70
     0
  9
$DIMSCALE
 40
1.0
  9
$DIMASZ
 40
3.302
  9
$DIMEXO
 40
1.0
  9
$DIMDLI
 40
3.75
  9
$DIMRND
 40
0.0
  9
$DIMDLE
 40
0.0
  9
$DIMEXE
 40
1.0
  9
$DIMTP
 40
0.0
  9
$DIMTM
 40
0.0
  9
$DIMTXT
 40
3.5
  9
$DIMCEN
 40
2.5
  9
$DIMTSZ
 40
0.0
  9
$DIMTOL
 70
     0
  9
$DIMLIM
 70
     0
  9
$DIMTIH
 70
     1
  9
$DIMTOH
 70
     1
  9
$DIMSE1
 70
     0
  9
$DIMSE2
 70
     0
  9
$DIMTAD
 70
     1
  9
$DIMZIN
 70
     0
  9
$DIMBLK
  1

  9
$DIMASO
 70
     1
  9
$DIMSHO
 70
     1
  9
$DIMPOST
  1

  9
$DIMAPOST
  1

  9
$DIMALT
 70
     0
  9
$DIMALTD
 70
     3
  9
$DIMALTF
 40
0.0393700787
  9
$DIMLFAC
 40
1.0
  9
$DIMTOFL
 70
     1
  9
$DIMTVP
 40
0.0
  9
$DIMTIX
 70
     0
  9
$DIMSOXD
 70
     0
  9
$DIMSAH
 70
     0
  9
$DIMBLK1
  1

  9
$DIMBLK2
  1

  9
$DIMSTYLE
  2
ISO-25
  9
$DIMCLRD
 70
     0
  9
$DIMCLRE
 70
     0
  9
$DIMCLRT
 70
     0
  9
$DIMTFAC
 40
1.0
  9
$DIMGAP
 40
1.524
  9
$DIMJUST
 70
     0
  9
$DIMSD1
 70
     0
  9
$DIMSD2
 70
     0
  9
$DIMTOLJ
 70
     0
  9
$DIMTZIN
 70
     0
  9
$DIMALTZ
 70
     0
  9
$DIMALTTZ
 70
     0
  9
$DIMUPT
 70
     0
  9
$DIMDEC
 70
     2
  9
$DIMTDEC
 70
     2
  9
$DIMALTU
 70
     2
  9
$DIMALTTD
 70
     3
  9
$DIMTXSTY
  7
Standard
  9
$DIMAUNIT
 70
     0
  9
$DIMADEC
 70
     2
  9
$DIMALTRND
 40
0.0
  9
$DIMAZIN
 70
     0
  9
$DIMDSEP
 70
    44
  9
$DIMATFIT
 70
     3
  9
$DIMFRAC
 70
     0
  9
$DIMLDRBLK
  1

  9
$DIMLUNIT
 70
     2
  9
$DIMLWD
 70
    -2
  9
$DIMLWE
 70
    -2
  9
$DIMTMOVE
 70
     0
  9
$LUNITS
 70
     2
  9
$LUPREC
 70
     2
  9
$SKETCHINC
 40
1.0
  9
$FILLETRAD
 40
10.0
  9
$AUNITS
 70
     0
  9
$AUPREC
 70
     2
  9
$MENU
  1
.
  9
$ELEVATION
 40
0.0
  9
$PELEVATION
 40
0.0
  9
$THICKNESS
 40
0.0
  9
$LIMCHECK
 70
     0
  9
$CHAMFERA
 40
0.0
  9
$CHAMFERB
 40
0.0
  9
$CHAMFERC
 40
0.0
  9
$CHAMFERD
 40
0.0
  9
$SKPOLY
 70
     0
  9
$TDCREATE
 40
2458862.400998437
  9
$TDUCREATE
 40
2458862.400998437
  9
$TDUPDATE
 40
2458862.401030255
  9
$TDUUPDATE
 40
2458862.401030255
  9
$TDINDWG
 40
0.0000000116
  9
$TDUSRTIMER
 40
0.0000000116
  9
$USRTIMER
 70
     1
  9
$ANGBASE
 50
0.0
  9
$ANGDIR
 70
     0
  9
$PDMODE
 70
     0
  9
$PDSIZE
 40
-1.0
  9
$PLINEWID
 40
0.0
  9
$SPLFRAME
 70
     0
  9
$SPLINETYPE
 70
     6
  9
$SPLINESEGS
 70
     8
  9
$HANDSEED
  5
36A
  9
$SURFTAB1
 70
     6
  9
$SURFTAB2
 70
     6
  9
$SURFTYPE
 70
     6
  9
$SURFU
 70
     6
  9
$SURFV
 70
     6
  9
$UCSBASE
  2

  9
$UCSNAME
  2

  9
$UCSORG
 10
0.0
 20
0.0
 30
0.0
  9
$UCSXDIR
 10
1.0
 20
0.0
 30
0.0
  9
$UCSYDIR
 10
0.0
 20
1.0
 30
0.0
  9
$UCSORTHOREF
  2

  9
$UCSORTHOVIEW
 70
     0
  9
$UCSORGTOP
 10
0.0
 20
0.0
 30
0.0
  9
$UCSORGBOTTOM
 10
0.0
 20
0.0
 30
0.0
  9
$UCSORGLEFT
 10
0.0
 20
0.0
 30
0.0
  9
$UCSORGRIGHT
 10
0.0
 20
0.0
 30
0.0
  9
$UCSORGFRONT
 10
0.0
 20
0.0
 30
0.0
  9
$UCSORGBACK
 10
0.0
 20
0.0
 30
0.0
  9
$PUCSBASE
  2

  9
$PUCSNAME
  2

  9
$PUCSORG
 10
0.0
 20
0.0
 30
0.0
  9
$PUCSXDIR
 10
1.0
 20
0.0
 30
0.0
  9
$PUCSYDIR
 10
0.0
 20
1.0
 30
0.0
  9
$PUCSORTHOREF
  2

  9
$PUCSORTHOVIEW
 70
     0
  9
$PUCSORGTOP
 10
0.0
 20
0.0
 30
0.0
  9
$PUCSORGBOTTOM
 10
0.0
 20
0.0
 30
0.0
  9
$PUCSORGLEFT
 10
0.0
 20
0.0
 30
0.0
  9
$PUCSORGRIGHT
 10
0.0
 20
0.0
 30
0.0
  9
$PUCSORGFRONT
 10
0.0
 20
0.0
 30
0.0
  9
$PUCSORGBACK
 10
0.0
 20
0.0
 30
0.0
  9
$USERI1
 70
     0
  9
$USERI2
 70
     0
  9
$USERI3
 70
     0
  9
$USERI4
 70
     0
  9
$USERI5
 70
     0
  9
$USERR1
 40
0.0
  9
$USERR2
 40
0.0
  9
$USERR3
 40
0.0
  9
$USERR4
 40
0.0
  9
$USERR5
 40
0.0
  9
$WORLDVIEW
 70
     1
  9
$SHADEDGE
 70
     3
  9
$SHADEDIF
 70
    70
  9
$TILEMODE
 70
     1
  9
$MAXACTVP
 70
    64
  9
$PINSBASE
 10
0.0
 20
0.0
 30
0.0
  9
$PLIMCHECK
 70
     0
  9
$PEXTMIN
 10
-105.0
 20
-20.0
 30
0.0
  9
$PEXTMAX
 10
105.0
 20
0.0
 30
0.0
  9
$PLIMMIN
 10
-121.3424124514
 20
-26.1284046693
  9
$PLIMMAX
 10
121.3424124514
 20
145.46692607
  9
$UNITMODE
 70
     0
  9
$VISRETAIN
 70
     1
  9
$PLINEGEN
 70
     0
  9
$PSLTSCALE
 70
     1
  9
$TREEDEPTH
 70
  3020
  9
$CMLSTYLE
  2
Standard
  9
$CMLJUST
 70
     0
  9
$CMLSCALE
 40
20.0
  9
$PROXYGRAPHICS
 70
     1
  9
$MEASUREMENT
 70
     1
  9
$CELWEIGHT
370
    -1
  9
$ENDCAPS
280
     0
  9
$JOINSTYLE
280
     0
  9
$LWDISPLAY
290
     1
  9
$INSUNITS
 70
     4
  9
$HYPERLINKBASE
  1

  9
$STYLESHEET
  1

  9
$XEDIT
290
     1
  9
$CEPSNTYPE
380
     0
  9
$PSTYLEMODE
290
     1
  9
$FINGERPRINTGUID
  2
{056327b6-b396-40b7-8fa0-25a57fa0026b}
  9
$VERSIONGUID
  2
{FAEB1C32-E019-11D5-929B-00C0DF256EC4}
  9
$EXTNAMES
290
     1
  9
$PSVPSCALE
 40
0.0
  9
$OLESTARTUP
290
     0
  0
ENDSEC
  0
SECTION
  2
CLASSES
  0
CLASS
  1
ACDBDICTIONARYWDFLT
  2
AcDbDictionaryWithDefault
  3
ObjectDBX Classes
 90
        0
280
     0
281
     0
  0
CLASS
  1
VISUALSTYLE
  2
AcDbVisualStyle
  3
ObjectDBX Classes
 90
     4095
280
     0
281
     0
  0
CLASS
  1
MATERIAL
  2
AcDbMaterial
  3
ObjectDBX Classes
 90
     1153
280
     0
281
     0
  0
CLASS
  1
SCALE
  2
AcDbScale
  3
ObjectDBX Classes
 90
     1153
280
     0
281
     0
  0
CLASS
  1
TABLESTYLE
  2
AcDbTableStyle
  3
ObjectDBX Classes
 90
     4095
280
     0
281
     0
  0
CLASS
  1
MLEADERSTYLE
  2
AcDbMLeaderStyle
  3
ACDB_MLEADERSTYLE_CLASS
 90
     4095
280
     0
281
     0
  0
CLASS
  1
SUN
  2
AcDbSun
  3
SCENEOE
 90
     1153
280
     0
281
     0
  0
CLASS
  1
ACDBPLACEHOLDER
  2
AcDbPlaceHolder
  3
ObjectDBX Classes
 90
        0
280
     0
281
     0
  0
CLASS
  1
LAYOUT
  2
AcDbLayout
  3
ObjectDBX Classes
 90
        0
280
     0
281
     0
  0
ENDSEC
  0
SECTION
  2
TABLES
  0
TABLE
  2
VPORT
  5
8
330
0
100
AcDbSymbolTable
 70
     1
  0
VPORT
  5
29
330
8
100
AcDbSymbolTableRecord
100
AcDbViewportTableRecord
  2
*Active
 70
     0
 10
0.0
 20
0.0
 11
1.0
 21
1.0
 12
0.0
 22
0.0
 13
0.0
 23
0.0
 14
10.0
 24
10.0
 15
10.0
 25
10.0
 16
0.0
 26
0.0
 36
1.0
 17
0.0
 27
0.0
 37
0.0
 40
12.2402105586
 41
17.4996989614
 42
50.0
 43
0.0
 44
0.0
 50
0.0
 51
0.0
 71
     0
 72
   100
 73
     1
 74
     3
 75
     0
 76
     0
 77
     0
 78
     0
281
     0
 65
     1
110
0.0
120
0.0
130
0.0
111
1.0
121
0.0
131
0.0
112
0.0
122
1.0
132
0.0
 79
     0
146
0.0
  0
ENDTAB
  0
TABLE
  2
LTYPE
  5
5
330
0
100
AcDbSymbolTable
 70
     6
  0
LTYPE
  5
14
330
5
100
AcDbSymbolTableRecord
100
AcDbLinetypeTableRecord
  2
ByBlock
 70
     0
  3

 72
    65
 73
     0
 40
0.0
  0
LTYPE
  5
15
330
5
100
AcDbSymbolTableRecord
100
AcDbLinetypeTableRecord
  2
ByLayer
 70
     0
  3

 72
    65
 73
     0
 40
0.0
  0
LTYPE
  5
16
330
5
100
AcDbSymbolTableRecord
100
AcDbLinetypeTableRecord
  2
Continuous
 70
     0
  3
Solid line
 72
    65
 73
     0
 40
0.0
  0
LTYPE
  5
6E
330
5
100
AcDbSymbolTableRecord
100
AcDbLinetypeTableRecord
  2
HIDDEN
 70
     0
  3
Hidden __ __ __ __ __ __ __ __ __ __ __ __ __ __
 72
    65
 73
     2
 40
1.905
 49
1.27
 74
     0
 49
-0.635
 74
     0
  0
LTYPE
  5
6F
330
5
100
AcDbSymbolTableRecord
100
AcDbLinetypeTableRecord
  2
PHANTOM
 70
     0
  3
Phantom ______  __  __  ______  __  __  ______
 72
    65
 73
     6
 40
12.7
 49
6.35
 74
     0
 49
-1.27
 74
     0
 49
1.27
 74
     0
 49
-1.27
 74
     0
 49
1.27
 74
     0
 49
-1.27
 74
     0
  0
LTYPE
  5
70
330
5
100
AcDbSymbolTableRecord
100
AcDbLinetypeTableRecord
  2
CENTER
 70
     0
  3
Center ____ _ ____ _ ____ _ ____ _ ____ _ ____
 72
    65
 73
     4
 40
10.16
 49
6.35
 74
     0
 49
-1.27
 74
     0
 49
1.27
 74
     0
 49
-1.27
 74
     0
  0
LTYPE
  5
71
330
5
100
AcDbSymbolTableRecord
100
AcDbLinetypeTableRecord
  2
CENTERX2
 70
     0
  3
Center (2x) ________  __  ________  __  _____
 72
    65
 73
     4
 40
20.32
 49
12.7
 74
     0
 49
-2.54
 74
     0
 49
2.54
 74
     0
 49
-2.54
 74
     0
  0
LTYPE
  5
72
330
5
100
AcDbSymbolTableRecord
100
AcDbLinetypeTableRecord
  2
DOT2
 70
     0
  3
Dot (.5x) ........................................
 72
    65
 73
     2
 40
0.635
 49
0.0
 74
     0
 49
-0.635
 74
     0
  0
ENDTAB
  0
TABLE
  2
LAYER
  5
2
330
0
100
AcDbSymbolTable
 70
     1
  0
LAYER
  5
10
330
2
100
AcDbSymbolTableRecord
100
AcDbLayerTableRecord
  2
0
 70
     0
 62
     7
  6
Continuous
370
    -3
390
F
  0
ENDTAB
  0
TABLE
  2
STYLE
  5
3
330
0
100
AcDbSymbolTable
 70
     1
  0
STYLE
  5
11
330
3
100
AcDbSymbolTableRecord
100
AcDbTextStyleTableRecord
  2
Standard
 70
     0
 40
0.0
 41
1.0
 50
0.0
 71
     0
 42
3.5
  3
txt
  4

  0
ENDTAB
  0
TABLE
  2
VIEW
  5
6
330
0
100
AcDbSymbolTable
 70
     0
  0
ENDTAB
  0
TABLE
  2
UCS
  5
7
330
0
100
AcDbSymbolTable
 70
     0
  0
ENDTAB
  0
TABLE
  2
APPID
  5
9
330
0
100
AcDbSymbolTable
 70
     1
  0
APPID
  5
12
330
9
100
AcDbSymbolTableRecord
100
AcDbRegAppTableRecord
  2
ACAD
 70
     0
  0
ENDTAB
  0
TABLE
  2
DIMSTYLE
  5
A
330
0
100
AcDbSymbolTable
 70
     1
100
AcDbDimStyleTable
  0
DIMSTYLE
105
27
330
A
100
AcDbSymbolTableRecord
100
AcDbDimStyleTableRecord
  2
ISO-25
 70
     0
 41
2.5
 42
0.625
 43
3.75
 44
1.25
 73
     0
 74
     0
 77
     1
 78
     8
140
2.5
141
2.5
143
0.0393700787
147
0.625
171
     3
172
     1
178
     0
271
     2
272
     2
274
     3
278
    44
283
     0
284
     8
340
11
  0
ENDTAB
  0
TABLE
  2
BLOCK_RECORD
  5
1
330
0
100
AcDbSymbolTable
 70
     7
  0
BLOCK_RECORD
  5
1F
330
1
100
AcDbSymbolTableRecord
100
AcDbBlockTableRecord
  2
*Model_Space
340
22
  0
BLOCK_RECORD
  5
1B
330
1
100
AcDbSymbolTableRecord
100
AcDbBlockTableRecord
  2
*Paper_Space
340
1E
  0
BLOCK_RECORD
  5
23
330
1
100
AcDbSymbolTableRecord
100
AcDbBlockTableRecord
  2
*Paper_Space0
340
26
  0
BLOCK_RECORD
  5
183
330
1
100
AcDbSymbolTableRecord
100
AcDbBlockTableRecord
  2
*Paper_Space1
340
184
  0
BLOCK_RECORD
  5
1A5
330
1
100
AcDbSymbolTableRecord
100
AcDbBlockTableRecord
  2
*Paper_Space2
340
1A6
  0
BLOCK_RECORD
  5
1C7
330
1
100
AcDbSymbolTableRecord
100
AcDbBlockTableRecord
  2
*Paper_Space3
340
1C8
  0
BLOCK_RECORD
  5
20B
330
1
100
AcDbSymbolTableRecord
100
AcDbBlockTableRecord
  2
*Paper_Space4
340
20C
  0
BLOCK_RECORD
  5
286
330
1
100
AcDbSymbolTableRecord
100
AcDbBlockTableRecord
  2
*Paper_Space5
340
287
  0
BLOCK_RECORD
  5
2F4
330
1
100
AcDbSymbolTableRecord
100
AcDbBlockTableRecord
  2
*Paper_Space6
340
2F5
  0
ENDTAB
  0
ENDSEC
  0
SECTION
  2
BLOCKS
  0
BLOCK
  5
20
330
1F
100
AcDbEntity
  8
0
100
AcDbBlockBegin
  2
*Model_Space
 70
     0
 10
0.0
 20
0.0
 30
0.0
  3
*Model_Space
  1

  0
ENDBLK
  5
21
330
1F
100
AcDbEntity
  8
0
100
AcDbBlockEnd
  0
BLOCK
  5
1C
330
1B
100
AcDbEntity
 67
     1
  8
0
100
AcDbBlockBegin
  2
*Paper_Space
 70
     0
 10
0.0
 20
0.0
 30
0.0
  3
*Paper_Space
  1

  0
ENDBLK
  5
1D
330
1B
100
AcDbEntity
 67
     1
  8
0
100
AcDbBlockEnd
  0
BLOCK
  5
24
330
23
100
AcDbEntity
  8
0
100
AcDbBlockBegin
  2
*Paper_Space0
 70
     0
 10
0.0
 20
0.0
 30
0.0
  3
*Paper_Space0
  1

  0
SPLINE
  5
145
330
23
100
AcDbEntity
  8
0
  6
Continuous
 62
     7
370
    25
100
AcDbSpline
210
0.0
220
0.0
230
1.0
 70
     8
 71
     3
 72
    10
 73
     6
 74
     0
 42
0.000000001
 43
0.00000001
 40
0.0
 40
0.0
 40
0.0
 40
0.0
 40
0.3019553496522964
 40
0.6777770346322037
 40
1.0
 40
1.0
 40
1.0
 40
1.0
 10
48.06246238960559
 20
3.264029181466091
 30
0.0
 10
47.76175889838732
 20
3.249237168049964
 30
0.0
 10
47.08679181859839
 20
3.216034620054154
 30
0.0
 10
46.05719444172978
 20
3.19011170118862
 30
0.0
 10
45.33388526964622
 20
3.186479587410554
 30
0.0
 10
44.99999999999996
 20
3.184802974787653
 30
0.0
  0
SPLINE
  5
146
330
23
100
AcDbEntity
  8
0
  6
Continuous
 62
     7
370
    25
100
AcDbSpline
210
0.0
220
0.0
230
1.0
 70
     8
 71
     3
 72
    18
 73
    14
 74
     0
 42
0.000000001
 43
0.00000001
 40
0.0
 40
0.0
 40
0.0
 40
0.0
 40
0.043263044846809
 40
0.1317991291504107
 40
0.2276697278884068
 40
0.3289793662196464
 40
0.4339025631930299
 40
0.5410670235553655
 40
0.6495633270821266
 40
0.7588250017027073
 40
0.8685100241800688
 40
0.9784172216694038
 40
1.0
 40
1.0
 40
1.0
 40
1.0
 10
54.99999999999996
 20
4.405171967276353
 30
0.0
 10
54.97387527580279
 20
4.390035302542185
 30
0.0
 10
54.89428735242215
 20
4.34392206115409
 30
0.0
 10
54.63785953607355
 20
4.234938864630123
 30
0.0
 10
54.23111939551466
 20
4.097401381497041
 30
0.0
 10
53.68812034327357
 20
3.950853421117555
 30
0.0
 10
53.02363072163791
 20
3.806208663085536
 30
0.0
 10
52.2466117520821
 20
3.668995738931912
 30
0.0
 10
51.37061224466976
 20
3.544137078191299
 30
0.0
 10
50.4104078029014
 20
3.434219501037317
 30
0.0
 10
49.37631429909717
 20
3.343963822329244
 30
0.0
 10
48.58685784117046
 20
3.287133692801457
 30
0.0
 10
48.13640050388011
 20
3.267286845113389
 30
0.0
 10
48.06246238960559
 20
3.264029181466091
 30
0.0
  0
SPLINE
  5
147
330
23
100
AcDbEntity
  8
0
  6
Continuous
 62
     7
370
    25
100
AcDbSpline
210
0.0
220
0.0
230
1.0
 70
     8
 71
     3
 72
    18
 73
    14
 74
     0
 42
0.000000001
 43
0.00000001
 40
0.0
 40
0.0
 40
0.0
 40
0.0
 40
0.0154174909388541
 40
0.1222838714968959
 40
0.2291326477299078
 40
0.3359015818306268
 40
0.4424758355622634
 40
0.5486581122429633
 40
0.6541191550309408
 40
0.7583137503027176
 40
0.8603431311674722
 40
0.9484522169852543
 40
1.0
 40
1.0
 40
1.0
 40
1.0
 10
47.74982366589497
 20
-3.248368862196117
 30
0.0
 10
47.80472249916011
 20
-3.250443180047125
 30
0.0
 10
48.2401527451675
 20
-3.266895637748728
 30
0.0
 10
49.02422613497711
 20
-3.318116345808087
 30
0.0
 10
50.08207545444979
 20
-3.402281799772803
 30
0.0
 10
51.07288102111963
 20
-3.507361273445879
 30
0.0
 10
51.98687260735306
 20
-3.628927658689517
 30
0.0
 10
52.8099547529065
 20
-3.76531612158559
 30
0.0
 10
53.52876148757426
 20
-3.912858491468373
 30
0.0
 10
54.13234686668859
 20
-4.067471782320719
 30
0.0
 10
54.58419177922085
 20
-4.21429136689934
 30
0.0
 10
54.87458460175439
 20
-4.334203319254196
 30
0.0
 10
54.96618865873283
 20
-4.386176283629491
 30
0.0
 10
54.99999999999996
 20
-4.405359665819332
 30
0.0
  0
SPLINE
  5
148
330
23
100
AcDbEntity
  8
0
  6
Continuous
 62
     7
370
    25
100
AcDbSpline
210
0.0
220
0.0
230
1.0
 70
     8
 71
     3
 72
    10
 73
     6
 74
     0
 42
0.000000001
 43
0.00000001
 40
0.0
 40
0.0
 40
0.0
 40
0.0
 40
0.2206060144081524
 40
0.6404949759141508
 40
0.9999999999999999
 40
0.9999999999999999
 40
0.9999999999999999
 40
0.9999999999999999
 10
44.99999999999999
 20
-3.18480297478765
 30
0.0
 10
45.20460347291498
 20
-3.185456741078899
 30
0.0
 10
45.79863757850459
 20
-3.187354849007141
 30
0.0
 10
46.72455264587116
 20
-3.204603757878289
 30
0.0
 10
47.42618646925496
 20
-3.234553963115335
 30
0.0
 10
47.74982366589497
 20
-3.248368862196117
 30
0.0
  0
SPLINE
  5
149
330
23
100
AcDbEntity
  8
0
  6
Continuous
 62
     7
370
    25
100
AcDbSpline
210
0.0
220
0.0
230
1.0
 70
     8
 71
     3
 72
    10
 73
     6
 74
     0
 42
0.000000001
 43
0.00000001
 40
0.0
 40
0.0
 40
0.0
 40
0.0
 40
0.3019553496520991
 40
0.6777770346321176
 40
1.0
 40
1.0
 40
1.0
 40
1.0
 10
-48.06246238960475
 20
-3.264029181466047
 30
0.0
 10
-47.76175889838679
 20
-3.249237168049936
 30
0.0
 10
-47.08679181859814
 20
-3.216034620054142
 30
0.0
 10
-46.0571944417298
 20
-3.190111701188616
 30
0.0
 10
-45.33388526964627
 20
-3.18647958741055
 30
0.0
 10
-45.00000000000001
 20
-3.18480297478765
 30
0.0
  0
SPLINE
  5
14A
330
23
100
AcDbEntity
  8
0
  6
Continuous
 62
     7
370
    25
100
AcDbSpline
210
0.0
220
0.0
230
1.0
 70
     8
 71
     3
 72
    18
 73
    14
 74
     0
 42
0.000000001
 43
0.00000001
 40
0.0
 40
0.0
 40
0.0
 40
0.0
 40
0.0432630448468047
 40
0.1317991291504034
 40
0.2276697278883891
 40
0.328979366219619
 40
0.4339025631929847
 40
0.5410670235553169
 40
0.6495633270820662
 40
0.7588250017026426
 40
0.8685100241799948
 40
0.9784172216693198
 40
0.9999999999999999
 40
0.9999999999999999
 40
0.9999999999999999
 40
0.9999999999999999
 10
-55.00000000000001
 20
-4.405171967276357
 30
0.0
 10
-54.97387527580286
 20
-4.390035302542191
 30
0.0
 10
-54.8942873524222
 20
-4.343922061154093
 30
0.0
 10
-54.63785953607364
 20
-4.234938864630126
 30
0.0
 10
-54.23111939551472
 20
-4.097401381497042
 30
0.0
 10
-53.68812034327365
 20
-3.95085342111756
 30
0.0
 10
-53.02363072163799
 20
-3.806208663085539
 30
0.0
 10
-52.2466117520822
 20
-3.668995738931918
 30
0.0
 10
-51.37061224466988
 20
-3.544137078191302
 30
0.0
 10
-50.41040780290145
 20
-3.434219501037314
 30
0.0
 10
-49.37631429909725
 20
-3.343963822329241
 30
0.0
 10
-48.58685784117021
 20
-3.287133692801434
 30
0.0
 10
-48.13640050387957
 20
-3.267286845113358
 30
0.0
 10
-48.06246238960476
 20
-3.264029181466047
 30
0.0
  0
SPLINE
  5
14B
330
23
100
AcDbEntity
  8
0
  6
Continuous
 62
     7
370
    25
100
AcDbSpline
210
0.0
220
0.0
230
1.0
 70
     8
 71
     3
 72
    18
 73
    14
 74
     0
 42
0.000000001
 43
0.00000001
 40
0.0
 40
0.0
 40
0.0
 40
0.0
 40
0.0154174909388026
 40
0.1222838714968547
 40
0.2291326477298689
 40
0.3359015818305914
 40
0.442475835562233
 40
0.5486581122429387
 40
0.6541191550309206
 40
0.758313750302703
 40
0.8603431311674568
 40
0.9484522169852437
 40
1.0
 40
1.0
 40
1.0
 40
1.0
 10
-47.74982366589552
 20
3.248368862196139
 30
0.0
 10
-47.80472249916046
 20
3.25044318004714
 30
0.0
 10
-48.24015274516777
 20
3.266895637748744
 30
0.0
 10
-49.02422613497708
 20
3.318116345808086
 30
0.0
 10
-50.08207545444986
 20
3.402281799772807
 30
0.0
 10
-51.07288102111966
 20
3.507361273445876
 30
0.0
 10
-51.98687260735306
 20
3.628927658689516
 30
0.0
 10
-52.80995475290656
 20
3.765316121585588
 30
0.0
 10
-53.52876148757428
 20
3.91285849146837
 30
0.0
 10
-54.13234686668863
 20
4.067471782320716
 30
0.0
 10
-54.58419177922089
 20
4.214291366899335
 30
0.0
 10
-54.87458460175446
 20
4.334203319254198
 30
0.0
 10
-54.96618865873288
 20
4.386176283629492
 30
0.0
 10
-55.00000000000002
 20
4.405359665819336
 30
0.0
  0
SPLINE
  5
14C
330
23
100
AcDbEntity
  8
0
  6
Continuous
 62
     7
370
    25
100
AcDbSpline
210
0.0
220
0.0
230
1.0
 70
     8
 71
     3
 72
    10
 73
     6
 74
     0
 42
0.000000001
 43
0.00000001
 40
0.0
 40
0.0
 40
0.0
 40
0.0
 40
0.2206060144081035
 40
0.6404949759140133
 40
1.0
 40
1.0
 40
1.0
 40
1.0
 10
-44.99999999999991
 20
3.184802974787653
 30
0.0
 10
-45.2046034729149
 20
3.1854567410789
 30
0.0
 10
-45.79863757850451
 20
3.187354849007141
 30
0.0
 10
-46.72455264587131
 20
3.204603757878297
 30
0.0
 10
-47.42618646925531
 20
3.234553963115348
 30
0.0
 10
-47.74982366589552
 20
3.248368862196139
 30
0.0
  0
CIRCLE
  5
157
330
23
100
AcDbEntity
  8
0
  6
Continuous
 62
     7
370
    25
100
AcDbCircle
 10
80.0
 20
0.0
 30
0.0
 40
2.400000000000006
  0
CIRCLE
  5
15E
330
23
100
AcDbEntity
  8
0
  6
Continuous
 62
     7
370
    25
100
AcDbCircle
 10
-80.0
 20
0.0
 30
0.0
 40
2.399999999999977
  0
LWPOLYLINE
  5
161
330
23
100
AcDbEntity
  8
0
  6
Continuous
 62
     7
370
    25
100
AcDbPolyline
 90
       14
 70
   128
 43
0.0
 10
55.0
 20
4.1098029748
 10
54.927088741
 20
3.8777698653
 10
54.7094181743
 20
3.649120321
 10
54.3501624269
 20
3.4271885672
 10
53.8545602565
 20
3.2152108686
 10
53.2298386589
 20
3.0162783373
 10
52.4851074817
 20
2.8332918577
 10
51.6312265824
 20
2.6689197846
 10
50.6806474673
 20
2.5255590329
 10
49.6472317204
 20
2.4053001254
 10
48.5460488704
 20
2.3098967076
 10
47.3931566429
 20
2.2407399762
 10
46.2053668026
 20
2.1988383921
 10
45.0
 20
2.1848029748
  0
LWPOLYLINE
  5
162
330
23
100
AcDbEntity
  8
0
  6
Continuous
 62
     7
370
    25
100
AcDbPolyline
 90
       14
 70
   128
 43
0.0
 10
45.0
 20
-2.1848029748
 10
46.2053668026
 20
-2.1988383921
 10
47.3931566429
 20
-2.2407399762
 10
48.5460488704
 20
-2.3098967076
 10
49.6472317204
 20
-2.4053001254
 10
50.6806474673
 20
-2.5255590329
 10
51.6312265824
 20
-2.6689197846
 10
52.4851074817
 20
-2.8332918577
 10
53.2298386589
 20
-3.0162783373
 10
53.8545602565
 20
-3.2152108686
 10
54.3501624269
 20
-3.4271885672
 10
54.7094181743
 20
-3.649120321
 10
54.927088741
 20
-3.8777698653
 10
55.0
 20
-4.1098029748
  0
LWPOLYLINE
  5
164
330
23
100
AcDbEntity
  8
0
  6
Continuous
 62
     7
370
    25
100
AcDbPolyline
 90
       14
 70
   128
 43
0.0
 10
-55.0
 20
-4.1098029748
 10
-54.927088741
 20
-3.8777698653
 10
-54.7094181743
 20
-3.649120321
 10
-54.3501624269
 20
-3.4271885672
 10
-53.8545602565
 20
-3.2152108686
 10
-53.2298386589
 20
-3.0162783373
 10
-52.4851074817
 20
-2.8332918577
 10
-51.6312265824
 20
-2.6689197846
 10
-50.6806474673
 20
-2.5255590329
 10
-49.6472317204
 20
-2.4053001254
 10
-48.5460488704
 20
-2.3098967076
 10
-47.3931566429
 20
-2.2407399762
 10
-46.2053668026
 20
-2.1988383921
 10
-45.0
 20
-2.1848029748
  0
LWPOLYLINE
  5
165
330
23
100
AcDbEntity
  8
0
  6
Continuous
 62
     7
370
    25
100
AcDbPolyline
 90
       14
 70
   128
 43
0.0
 10
-45.0
 20
2.1848029748
 10
-46.2053668026
 20
2.1988383921
 10
-47.3931566429
 20
2.2407399762
 10
-48.5460488704
 20
2.3098967076
 10
-49.6472317204
 20
2.4053001254
 10
-50.6806474673
 20
2.5255590329
 10
-51.6312265824
 20
2.6689197846
 10
-52.4851074817
 20
2.8332918577
 10
-53.2298386589
 20
3.0162783373
 10
-53.8545602565
 20
3.2152108686
 10
-54.3501624269
 20
3.4271885672
 10
-54.7094181743
 20
3.649120321
 10
-54.927088741
 20
3.8777698653
 10
-55.0
 20
4.1098029748
  0
LINE
  5
16D
330
23
100
AcDbEntity
  8
0
  6
Continuous
 62
     7
370
    25
100
AcDbLine
 10
-45.0
 20
-3.1848029748
 30
0.0
 11
45.0
 21
-3.1848029748
 31
0.0
  0
LINE
  5
16E
330
23
100
AcDbEntity
  8
0
  6
Continuous
 62
     7
370
    25
100
AcDbLine
 10
45.0
 20
3.1848029748
 30
0.0
 11
-45.0
 21
3.1848029748
 31
0.0
  0
LINE
  5
16F
330
23
100
AcDbEntity
  8
0
  6
Continuous
 62
     7
370
    25
100
AcDbLine
 10
56.0
 20
6.0
 30
0.0
 11
104.0123186765
 21
6.0
 31
0.0
  0
LINE
  5
170
330
23
100
AcDbEntity
  8
0
  6
Continuous
 62
     7
370
    25
100
AcDbLine
 10
105.0
 20
5.0272467092
 30
0.0
 11
105.0
 21
-5.0272467092
 31
0.0
  0
LINE
  5
171
330
23
100
AcDbEntity
  8
0
  6
Continuous
 62
     7
370
    25
100
AcDbLine
 10
104.0123186765
 20
-6.0
 30
0.0
 11
56.0
 21
-6.0
 31
0.0
  0
LINE
  5
172
330
23
100
AcDbEntity
  8
0
  6
Continuous
 62
     7
370
    25
100
AcDbLine
 10
55.0
 20
-4.9848029748
 30
0.0
 11
55.0
 21
4.9848029748
 31
0.0
  0
LINE
  5
173
330
23
100
AcDbEntity
  8
0
  6
Continuous
 62
     7
370
    25
100
AcDbLine
 10
-105.0
 20
-5.0272467092
 30
0.0
 11
-105.0
 21
5.0272467092
 31
0.0
  0
LINE
  5
174
330
23
100
AcDbEntity
  8
0
  6
Continuous
 62
     7
370
    25
100
AcDbLine
 10
-55.0
 20
-4.9848029748
 30
0.0
 11
-55.0
 21
4.9848029748
 31
0.0
  0
LINE
  5
175
330
23
100
AcDbEntity
  8
0
  6
Continuous
 62
     7
370
    25
100
AcDbLine
 10
-56.0
 20
-6.0
 30
0.0
 11
-104.0123186765
 21
-6.0
 31
0.0
  0
LINE
  5
176
330
23
100
AcDbEntity
  8
0
  6
Continuous
 62
     7
370
    25
100
AcDbLine
 10
-104.0123186765
 20
6.0
 30
0.0
 11
-56.0
 21
6.0
 31
0.0
  0
LINE
  5
177
330
23
100
AcDbEntity
  8
0
  6
Continuous
 62
     7
370
    25
100
AcDbLine
 10
45.0
 20
-3.1848025288
 30
0.0
 11
45.0
 21
3.1848014422
 31
0.0
  0
LINE
  5
178
330
23
100
AcDbEntity
  8
0
  6
Continuous
 62
     7
370
    25
100
AcDbLine
 10
-45.0
 20
3.1848025288
 30
0.0
 11
-45.0
 21
-3.1848014422
 31
0.0
  0
LINE
  5
179
330
23
100
AcDbEntity
  8
0
  6
Continuous
 62
     7
370
    25
100
AcDbLine
 10
-45.0
 20
-2.1848029748
 30
0.0
 11
45.0
 21
-2.1848029748
 31
0.0
  0
LINE
  5
17A
330
23
100
AcDbEntity
  8
0
  6
Continuous
 62
     7
370
    25
100
AcDbLine
 10
45.0
 20
2.1848029748
 30
0.0
 11
-45.0
 21
2.1848029748
 31
0.0
  0
ARC
  5
17B
330
23
100
AcDbEntity
  8
0
  6
Continuous
 62
     7
370
    25
100
AcDbCircle
 10
56.00765625
 20
4.9923446143
 30
0.0
 40
1.007684471692725
100
AcDbArc
 50
90.4353297534
 51
180.4288129478
  0
ARC
  5
17C
330
23
100
AcDbEntity
  8
0
  6
Continuous
 62
     7
370
    25
100
AcDbCircle
 10
104.0264943667
 20
5.0265973651
 30
0.0
 40
0.9735058499109321
100
AcDbArc
 50
0.0382172096
 51
90.8343410789
  0
ARC
  5
17D
330
23
100
AcDbEntity
  8
0
  6
Continuous
 62
     7
370
    25
100
AcDbCircle
 10
104.0264943667
 20
-5.0265973651
 30
0.0
 40
0.973505849910954
100
AcDbArc
 50
269.1656589211
 51
359.9617827904
  0
ARC
  5
17E
330
23
100
AcDbEntity
  8
0
  6
Continuous
 62
     7
370
    25
100
AcDbCircle
 10
56.0073416883
 20
-4.9926544672
 30
0.0
 40
1.00737228614795
100
AcDbArc
 50
179.5534303084
 51
269.5824269904
  0
ARC
  5
17F
330
23
100
AcDbEntity
  8
0
  6
Continuous
 62
     7
370
    25
100
AcDbCircle
 10
-56.0073416883
 20
4.9926544672
 30
0.0
 40
1.007372286147945
100
AcDbArc
 50
359.5534303084
 51
89.5824269904
  0
ARC
  5
180
330
23
100
AcDbEntity
  8
0
  6
Continuous
 62
     7
370
    25
100
AcDbCircle
 10
-104.0264943667
 20
-5.0265973651
 30
0.0
 40
0.97350584991094
100
AcDbArc
 50
180.0382172096
 51
270.8343410789
  0
ARC
  5
181
330
23
100
AcDbEntity
  8
0
  6
Continuous
 62
     7
370
    25
100
AcDbCircle
 10
-104.0264943667
 20
5.0265973651
 30
0.0
 40
0.9735058499109256
100
AcDbArc
 50
89.1656589211
 51
179.9617827904
  0
ARC
  5
182
330
23
100
AcDbEntity
  8
0
  6
Continuous
 62
     7
370
    25
100
AcDbCircle
 10
-56.00765625
 20
-4.9923446143
 30
0.0
 40
1.007684471692718
100
AcDbArc
 50
270.4353297534
 51
0.4288129478
  0
VIEWPORT
  5
35C
330
23
100
AcDbEntity
  8
0
100
AcDbViewport
 10
0.0
 20
0.0
 30
0.0
 40
205.6
 41
156.0
 68
     1
 69
     1
 12
0.0
 22
0.0
 13
0.0
 23
0.0
 14
10.0
 24
10.0
 15
10.0
 25
10.0
 16
0.0
 26
0.0
 36
1.0
 17
0.0
 27
0.0
 37
0.0
 42
50.0
 43
0.0
 44
0.0
 45
162.5252918288
 50
0.0
 51
0.0
 72
   100
 90
   557152
  1

281
     0
 71
     1
 74
     0
110
0.0
120
0.0
130
0.0
111
1.0
121
0.0
131
0.0
112
0.0
122
1.0
132
0.0
 79
     0
146
0.0
  0
ENDBLK
  5
25
330
23
100
AcDbEntity
  8
0
100
AcDbBlockEnd
  0
BLOCK
  5
185
330
183
100
AcDbEntity
  8
0
100
AcDbBlockBegin
  2
*Paper_Space1
 70
     0
 10
0.0
 20
0.0
 30
0.0
  3
*Paper_Space1
  1

  0
LINE
  5
198
330
183
100
AcDbEntity
  8
0
  6
Continuous
 62
     7
370
    25
100
AcDbLine
 10
0.0
 20
-5.0272467092
 30
0.0
 11
12.4253562504
 21
-2.8528093654
 31
0.0
  0
LINE
  5
199
330
183
100
AcDbEntity
  8
0
  6
Continuous
 62
     7
370
    25
100
AcDbLine
 10
19.1723803318
 20
-2.6448334419
 30
0.0
 11
0.0
 21
-6.0
 31
0.0
  0
LINE
  5
19A
330
183
100
AcDbEntity
  8
0
  6
Continuous
 62
     7
370
    25
100
AcDbLine
 10
0.0
 20
6.0
 30
0.0
 11
19.1723803318
 21
2.6448334419
 31
0.0
  0
LINE
  5
19B
330
183
100
AcDbEntity
  8
0
  6
Continuous
 62
     7
370
    25
100
AcDbLine
 10
12.4253562504
 20
2.8528093654
 30
0.0
 11
0.0
 21
5.0272467092
 31
0.0
  0
LINE
  5
19C
330
183
100
AcDbEntity
  8
0
  6
Continuous
 62
     7
370
    25
100
AcDbLine
 10
0.0
 20
6.0
 30
0.0
 11
0.0
 21
-6.0
 31
0.0
  0
LINE
  5
19D
330
183
100
AcDbEntity
  8
0
  6
Continuous
 62
     7
370
    25
100
AcDbLine
 10
12.4253562504
 20
-2.8528093654
 30
0.0
 11
12.4253562504
 21
2.8528093654
 31
0.0
  0
LINE
  5
19E
330
183
100
AcDbEntity
  8
0
  6
Continuous
 62
     7
370
    25
100
AcDbLine
 10
20.0
 20
1.6598029748
 30
0.0
 11
12.4253562504
 21
2.8528093654
 31
0.0
  0
LINE
  5
19F
330
183
100
AcDbEntity
  8
0
  6
Continuous
 62
     7
370
    25
100
AcDbLine
 10
20.0
 20
1.6598029748
 30
0.0
 11
20.0
 21
-1.6598029748
 31
0.0
  0
LINE
  5
1A0
330
183
100
AcDbEntity
  8
0
  6
Continuous
 62
     7
370
    25
100
AcDbLine
 10
12.4253562504
 20
-2.8528093654
 30
0.0
 11
20.0
 21
-1.6598029748
 31
0.0
  0
ARC
  5
1A1
330
183
100
AcDbEntity
  8
0
  6
Continuous
 62
     7
370
    25
100
AcDbCircle
 10
11.3108360279
 20
-3.2684451388
 30
0.0
 40
1.189499231825877
100
AcDbArc
 50
331.4004884706
 51
20.45189277
  0
ARC
  5
1A2
330
183
100
AcDbEntity
  8
0
  6
Continuous
 62
     7
370
    25
100
AcDbCircle
 10
11.3108360279
 20
3.2684451388
 30
0.0
 40
1.189499231825798
100
AcDbArc
 50
339.54810723
 51
28.5995115294
  0
ARC
  5
1A3
330
183
100
AcDbEntity
  8
0
  6
Continuous
 62
     7
370
    25
100
AcDbCircle
 10
19.0
 20
-1.6598029748
 30
0.0
 40
0.9999999999999969
100
AcDbArc
 50
279.9262455067
 51
0.0
  0
ARC
  5
1A4
330
183
100
AcDbEntity
  8
0
  6
Continuous
 62
     7
370
    25
100
AcDbCircle
 10
19.0
 20
1.6598029748
 30
0.0
 40
0.9999999999999964
100
AcDbArc
 50
0.0
 51
80.0737544933
  0
VIEWPORT
  5
35E
330
183
100
AcDbEntity
  8
0
100
AcDbViewport
 10
0.0
 20
0.0
 30
0.0
 40
205.6
 41
156.0
 68
     1
 69
     1
 12
0.0
 22
0.0
 13
0.0
 23
0.0
 14
10.0
 24
10.0
 15
10.0
 25
10.0
 16
0.0
 26
0.0
 36
1.0
 17
0.0
 27
0.0
 37
0.0
 42
50.0
 43
0.0
 44
0.0
 45
162.5252918288
 50
0.0
 51
0.0
 72
   100
 90
   557152
  1

281
     0
 71
     1
 74
     0
110
0.0
120
0.0
130
0.0
111
1.0
121
0.0
131
0.0
112
0.0
122
1.0
132
0.0
 79
     0
146
0.0
  0
ENDBLK
  5
186
330
183
100
AcDbEntity
  8
0
100
AcDbBlockEnd
  0
BLOCK
  5
1A7
330
1A5
100
AcDbEntity
  8
0
100
AcDbBlockBegin
  2
*Paper_Space2
 70
     0
 10
0.0
 20
0.0
 30
0.0
  3
*Paper_Space2
  1

  0
LINE
  5
1BA
330
1A5
100
AcDbEntity
  8
0
  6
Continuous
 62
     7
370
    25
100
AcDbLine
 10
0.0
 20
5.0272467092
 30
0.0
 11
-12.4253562504
 21
2.8528093654
 31
0.0
  0
LINE
  5
1BB
330
1A5
100
AcDbEntity
  8
0
  6
Continuous
 62
     7
370
    25
100
AcDbLine
 10
-19.1723803318
 20
2.6448334419
 30
0.0
 11
0.0
 21
6.0
 31
0.0
  0
LINE
  5
1BC
330
1A5
100
AcDbEntity
  8
0
  6
Continuous
 62
     7
370
    25
100
AcDbLine
 10
0.0
 20
-6.0
 30
0.0
 11
0.0
 21
6.0
 31
0.0
  0
LINE
  5
1BD
330
1A5
100
AcDbEntity
  8
0
  6
Continuous
 62
     7
370
    25
100
AcDbLine
 10
-12.4253562504
 20
-2.8528093654
 30
0.0
 11
0.0
 21
-5.0272467092
 31
0.0
  0
LINE
  5
1BE
330
1A5
100
AcDbEntity
  8
0
  6
Continuous
 62
     7
370
    25
100
AcDbLine
 10
-12.4253562504
 20
2.8528093654
 30
0.0
 11
-12.4253562504
 21
-2.8528093654
 31
0.0
  0
LINE
  5
1BF
330
1A5
100
AcDbEntity
  8
0
  6
Continuous
 62
     7
370
    25
100
AcDbLine
 10
0.0
 20
-6.0
 30
0.0
 11
-19.1723803318
 21
-2.6448334419
 31
0.0
  0
LINE
  5
1C0
330
1A5
100
AcDbEntity
  8
0
  6
Continuous
 62
     7
370
    25
100
AcDbLine
 10
-12.4253562504
 20
2.8528093654
 30
0.0
 11
-20.0
 21
1.6598029748
 31
0.0
  0
LINE
  5
1C1
330
1A5
100
AcDbEntity
  8
0
  6
Continuous
 62
     7
370
    25
100
AcDbLine
 10
-20.0
 20
-1.6598029748
 30
0.0
 11
-12.4253562504
 21
-2.8528093654
 31
0.0
  0
LINE
  5
1C2
330
1A5
100
AcDbEntity
  8
0
  6
Continuous
 62
     7
370
    25
100
AcDbLine
 10
-20.0
 20
-1.6598029748
 30
0.0
 11
-20.0
 21
1.6598029748
 31
0.0
  0
ARC
  5
1C3
330
1A5
100
AcDbEntity
  8
0
  6
Continuous
 62
     7
370
    25
100
AcDbCircle
 10
-11.3108360279
 20
3.2684451388
 30
0.0
 40
1.189499231825941
100
AcDbArc
 50
151.4004884706
 51
200.45189277
  0
ARC
  5
1C4
330
1A5
100
AcDbEntity
  8
0
  6
Continuous
 62
     7
370
    25
100
AcDbCircle
 10
-11.3108360279
 20
-3.2684451388
 30
0.0
 40
1.189499231825933
100
AcDbArc
 50
159.54810723
 51
208.5995115294
  0
ARC
  5
1C5
330
1A5
100
AcDbEntity
  8
0
  6
Continuous
 62
     7
370
    25
100
AcDbCircle
 10
-19.0
 20
1.6598029748
 30
0.0
 40
0.9999999999999964
100
AcDbArc
 50
99.9262455067
 51
180.0
  0
ARC
  5
1C6
330
1A5
100
AcDbEntity
  8
0
  6
Continuous
 62
     7
370
    25
100
AcDbCircle
 10
-19.0
 20
-1.6598029748
 30
0.0
 40
0.9999999999999964
100
AcDbArc
 50
180.0
 51
260.0737544934
  0
VIEWPORT
  5
360
330
1A5
100
AcDbEntity
  8
0
100
AcDbViewport
 10
0.0
 20
0.0
 30
0.0
 40
205.6
 41
156.0
 68
     1
 69
     1
 12
0.0
 22
0.0
 13
0.0
 23
0.0
 14
10.0
 24
10.0
 15
10.0
 25
10.0
 16
0.0
 26
0.0
 36
1.0
 17
0.0
 27
0.0
 37
0.0
 42
50.0
 43
0.0
 44
0.0
 45
162.5252918288
 50
0.0
 51
0.0
 72
   100
 90
   557152
  1

281
     0
 71
     1
 74
     0
110
0.0
120
0.0
130
0.0
111
1.0
121
0.0
131
0.0
112
0.0
122
1.0
132
0.0
 79
     0
146
0.0
  0
ENDBLK
  5
1A8
330
1A5
100
AcDbEntity
  8
0
100
AcDbBlockEnd
  0
BLOCK
  5
1C9
330
1C7
100
AcDbEntity
  8
0
100
AcDbBlockBegin
  2
*Paper_Space3
 70
     0
 10
0.0
 20
0.0
 30
0.0
  3
*Paper_Space3
  1

  0
LINE
  5
1ED
330
1C7
100
AcDbEntity
  8
0
  6
Continuous
 62
     7
370
    25
100
AcDbLine
 10
-100.9235184373
 20
12.3552009571
 30
0.0
 11
-104.0123186765
 21
0.0
 31
0.0
  0
LINE
  5
1EE
330
1C7
100
AcDbEntity
  8
0
  6
Continuous
 62
     7
370
    25
100
AcDbLine
 10
92.192235936
 20
19.1723803318
 30
0.0
 11
-92.192235936
 21
19.1723803318
 31
0.0
  0
LINE
  5
1EF
330
1C7
100
AcDbEntity
  8
0
  6
Continuous
 62
     7
370
    25
100
AcDbLine
 10
104.0123186765
 20
0.0
 30
0.0
 11
100.9235184373
 21
12.3552009571
 31
0.0
  0
LINE
  5
1F0
330
1C7
100
AcDbEntity
  8
0
  6
Continuous
 62
     7
370
    25
100
AcDbLine
 10
55.0
 20
0.0
 30
0.0
 11
105.0
 21
0.0
 31
0.0
  0
LINE
  5
1F1
330
1C7
100
AcDbEntity
  8
0
  6
Continuous
 62
     7
370
    25
100
AcDbLine
 10
56.0
 20
5.1723803318
 30
0.0
 11
56.0
 21
0.0
 31
0.0
  0
LINE
  5
1F2
330
1C7
100
AcDbEntity
  8
0
  6
Continuous
 62
     7
370
    25
100
AcDbLine
 10
-45.0
 20
16.1723803318
 30
0.0
 11
45.0
 21
16.1723803318
 31
0.0
  0
LINE
  5
1F3
330
1C7
100
AcDbEntity
  8
0
  6
Continuous
 62
     7
370
    25
100
AcDbLine
 10
-56.0
 20
0.0
 30
0.0
 11
-56.0
 21
5.1723803318
 31
0.0
  0
LINE
  5
1F4
330
1C7
100
AcDbEntity
  8
0
  6
Continuous
 62
     7
370
    25
100
AcDbLine
 10
-105.0
 20
0.0
 30
0.0
 11
-55.0
 21
0.0
 31
0.0
  0
LINE
  5
1F5
330
1C7
100
AcDbEntity
  8
0
  6
Continuous
 62
     7
370
    25
100
AcDbLine
 10
-105.0
 20
0.0
 30
0.0
 11
-101.8936609374
 21
12.4253562504
 31
0.0
  0
LINE
  5
1F6
330
1C7
100
AcDbEntity
  8
0
  6
Continuous
 62
     7
370
    25
100
AcDbLine
 10
-55.0
 20
5.0
 30
0.0
 11
-55.0
 21
0.0
 31
0.0
  0
LINE
  5
1F7
330
1C7
100
AcDbEntity
  8
0
  6
Continuous
 62
     7
370
    25
100
AcDbLine
 10
55.0
 20
0.0
 30
0.0
 11
55.0
 21
5.0
 31
0.0
  0
LINE
  5
1F8
330
1C7
100
AcDbEntity
  8
0
  6
Continuous
 62
     7
370
    25
100
AcDbLine
 10
101.8936609374
 20
12.4253562504
 30
0.0
 11
105.0
 21
0.0
 31
0.0
  0
LINE
  5
1F9
330
1C7
100
AcDbEntity
  8
0
  6
Continuous
 62
     7
370
    25
100
AcDbLine
 10
-45.0
 20
15.0
 30
0.0
 11
-45.0
 21
16.1723803318
 31
0.0
  0
LINE
  5
1FA
330
1C7
100
AcDbEntity
  8
0
  6
Continuous
 62
     7
370
    25
100
AcDbLine
 10
45.0
 20
15.0
 30
0.0
 11
45.0
 21
16.1723803318
 31
0.0
  0
LINE
  5
1FB
330
1C7
100
AcDbEntity
  8
0
  6
Continuous
 62
     7
370
    25
100
AcDbLine
 10
-92.192235936
 20
20.0
 30
0.0
 11
-92.192235936
 21
19.1723803318
 31
0.0
  0
LINE
  5
1FC
330
1C7
100
AcDbEntity
  8
0
  6
Continuous
 62
     7
370
    25
100
AcDbLine
 10
92.192235936
 20
20.0
 30
0.0
 11
92.192235936
 21
19.1723803318
 31
0.0
  0
LINE
  5
1FD
330
1C7
100
AcDbEntity
  8
0
  6
Continuous
 62
     7
370
    25
100
AcDbLine
 10
45.0
 20
15.0
 30
0.0
 11
-45.0
 21
15.0
 31
0.0
  0
LINE
  5
1FE
330
1C7
100
AcDbEntity
  8
0
  6
Continuous
 62
     7
370
    25
100
AcDbLine
 10
-92.192235936
 20
20.0
 30
0.0
 11
92.192235936
 21
20.0
 31
0.0
  0
ARC
  5
1FF
330
1C7
100
AcDbEntity
  8
0
  6
Continuous
 62
     7
370
    25
100
AcDbCircle
 10
-92.192235936
 20
10.1723803318
 30
0.0
 40
8.999999999999977
100
AcDbArc
 50
90.0
 51
165.9637565321
  0
ARC
  5
200
330
1C7
100
AcDbEntity
  8
0
  6
Continuous
 62
     7
370
    25
100
AcDbCircle
 10
92.192235936
 20
10.1723803318
 30
0.0
 40
9.000000000000018
100
AcDbArc
 50
14.0362434679
 51
90.0
  0
ARC
  5
201
330
1C7
100
AcDbEntity
  8
0
  6
Continuous
 62
     7
370
    25
100
AcDbCircle
 10
45.0
 20
5.1723803318
 30
0.0
 40
10.99999999999999
100
AcDbArc
 50
0.0
 51
90.0
  0
ARC
  5
202
330
1C7
100
AcDbEntity
  8
0
  6
Continuous
 62
     7
370
    25
100
AcDbCircle
 10
-45.0
 20
5.1723803318
 30
0.0
 40
10.99999999999999
100
AcDbArc
 50
90.0
 51
180.0
  0
ARC
  5
203
330
1C7
100
AcDbEntity
  8
0
  6
Continuous
 62
     7
370
    25
100
AcDbCircle
 10
-101.515055813
 20
10.9180117438
 30
0.0
 40
1.554165146206485
100
AcDbArc
 50
67.6282651239
 51
104.0995120886
  0
ARC
  5
204
330
1C7
100
AcDbEntity
  8
0
  6
Continuous
 62
     7
370
    25
100
AcDbCircle
 10
-55.7574287447
 20
3.5928136183
 30
0.0
 40
1.598083795047186
100
AcDbArc
 50
61.7083040419
 51
98.7306056113
  0
ARC
  5
205
330
1C7
100
AcDbEntity
  8
0
  6
Continuous
 62
     7
370
    25
100
AcDbCircle
 10
55.7574287447
 20
3.5928136183
 30
0.0
 40
1.598083795047185
100
AcDbArc
 50
81.2693943887
 51
118.2916959581
  0
ARC
  5
206
330
1C7
100
AcDbEntity
  8
0
  6
Continuous
 62
     7
370
    25
100
AcDbCircle
 10
101.515055813
 20
10.9180117438
 30
0.0
 40
1.554165146206357
100
AcDbArc
 50
75.9004879114
 51
112.3717348761
  0
ARC
  5
207
330
1C7
100
AcDbEntity
  8
0
  6
Continuous
 62
     7
370
    25
100
AcDbCircle
 10
-45.0
 20
5.0
 30
0.0
 40
10.0
100
AcDbArc
 50
90.0
 51
180.0
  0
ARC
  5
208
330
1C7
100
AcDbEntity
  8
0
  6
Continuous
 62
     7
370
    25
100
AcDbCircle
 10
45.0
 20
5.0
 30
0.0
 40
10.0
100
AcDbArc
 50
0.0
 51
90.0
  0
ARC
  5
209
330
1C7
100
AcDbEntity
  8
0
  6
Continuous
 62
     7
370
    25
100
AcDbCircle
 10
-92.192235936
 20
10.0
 30
0.0
 40
10.00000000000002
100
AcDbArc
 50
90.0
 51
165.9637565321
  0
ARC
  5
20A
330
1C7
100
AcDbEntity
  8
0
  6
Continuous
 62
     7
370
    25
100
AcDbCircle
 10
92.192235936
 20
10.0
 30
0.0
 40
10.00000000000003
100
AcDbArc
 50
14.0362434679
 51
90.0
  0
VIEWPORT
  5
362
330
1C7
100
AcDbEntity
  8
0
100
AcDbViewport
 10
0.0
 20
0.0
 30
0.0
 40
205.6
 41
156.0
 68
     1
 69
     1
 12
0.0
 22
0.0
 13
0.0
 23
0.0
 14
10.0
 24
10.0
 15
10.0
 25
10.0
 16
0.0
 26
0.0
 36
1.0
 17
0.0
 27
0.0
 37
0.0
 42
50.0
 43
0.0
 44
0.0
 45
162.5252918288
 50
0.0
 51
0.0
 72
   100
 90
   557152
  1

281
     0
 71
     1
 74
     0
110
0.0
120
0.0
130
0.0
111
1.0
121
0.0
131
0.0
112
0.0
122
1.0
132
0.0
 79
     0
146
0.0
  0
ENDBLK
  5
1CA
330
1C7
100
AcDbEntity
  8
0
100
AcDbBlockEnd
  0
BLOCK
  5
20D
330
20B
100
AcDbEntity
  8
0
100
AcDbBlockBegin
  2
*Paper_Space4
 70
     0
 10
0.0
 20
0.0
 30
0.0
  3
*Paper_Space4
  1

  0
SPLINE
  5
20F
330
20B
100
AcDbEntity
  8
0
  6
Continuous
 62
     7
370
    25
100
AcDbSpline
210
0.0
220
0.0
230
1.0
 70
     8
 71
     3
 72
    19
 73
    15
 74
     0
 42
0.000000001
 43
0.00000001
 40
0.0
 40
0.0
 40
0.0
 40
0.0
 40
0.0474116805652927
 40
0.1375921904803684
 40
0.2273946455219613
 40
0.3169208906577505
 40
0.4063186103487103
 40
0.4957266039700688
 40
0.5852312881080998
 40
0.6749390757724396
 40
0.7649501962135138
 40
0.855357443066112
 40
0.9462518799218483
 40
1.0
 40
1.0
 40
1.0
 40
1.0
 10
51.25476699420192
 20
-47.61046742589366
 30
0.0
 10
51.40292611042422
 20
-47.69337591944849
 30
0.0
 10
51.83289478265024
 20
-47.93398247676993
 30
0.0
 10
52.60737119404567
 20
-48.2972543482577
 30
0.0
 10
53.59129327685589
 20
-48.68043915523506
 30
0.0
 10
54.63110624588389
 20
-49.00878334788538
 30
0.0
 10
55.71272277910757
 20
-49.28016454990936
 30
0.0
 10
56.82357810143924
 20
-49.49178741688675
 30
0.0
 10
57.95021099775526
 20
-49.64147409592464
 30
0.0
 10
59.07897272809826
 20
-49.72731280642604
 30
0.0
 10
60.19671552121238
 20
-49.74827306649114
 30
0.0
 10
61.28897957904238
 20
-49.70225403351252
 30
0.0
 10
62.20103304720772
 20
-49.60820533426414
 30
0.0
 10
62.73307845016355
 20
-49.51711604880978
 30
0.0
 10
62.93078264463632
 20
-49.4832679341455
 30
0.0
  0
SPLINE
  5
212
330
20B
100
AcDbEntity
  8
0
  6
Continuous
 62
     7
370
    25
100
AcDbSpline
210
0.0
220
0.0
230
1.0
 70
     8
 71
     3
 72
    22
 73
    18
 74
     0
 42
0.000000001
 43
0.00000001
 40
0.0
 40
0.0
 40
0.0
 40
0.0
 40
0.0366021220775956
 40
0.1073776321218647
 40
0.1781972379424631
 40
0.2489952747782419
 40
0.3197258773902963
 40
0.3903388783383671
 40
0.4607877316437267
 40
0.5310306914684111
 40
0.6010340361978713
 40
0.6707745759589919
 40
0.7402422752809289
 40
0.8094439543980002
 40
0.8784092905394434
 40
0.9472006535969085
 40
1.0
 40
1.0
 40
1.0
 40
1.0
 10
35.44772241992113
 20
-20.75588280889308
 30
0.0
 10
35.30962564258515
 20
-20.86033397153854
 30
0.0
 10
34.90449872337101
 20
-21.16675660172015
 30
0.0
 10
34.16439419241503
 20
-21.63840667835618
 30
0.0
 10
33.20982241806238
 20
-22.1443187097136
 30
0.0
 10
32.1889054637292
 20
-22.58386813986971
 30
0.0
 10
31.11702017156675
 20
-22.95125844549168
 30
0.0
 10
30.00812644212991
 20
-23.24105960302267
 30
0.0
 10
28.8772978934798
 20
-23.44937347507419
 30
0.0
 10
27.73974496000012
 20
-23.57358074465969
 30
0.0
 10
26.61078060984959
 20
-23.61244461664229
 30
0.0
 10
25.50545420133516
 20
-23.56614374421872
 30
0.0
 10
24.43855841163628
 20
-23.43612858904946
 30
0.0
 10
23.42347734665131
 20
-23.22563561496744
 30
0.0
 10
22.47523835296961
 20
-22.93761346998701
 30
0.0
 10
21.66556519887975
 20
-22.60950095476082
 30
0.0
 10
21.20573285081315
 20
-22.35913586945568
 30
0.0
 10
21.00605602072778
 20
-22.25041775336841
 30
0.0
  0
SPLINE
  5
215
330
20B
100
AcDbEntity
  8
0
  6
Continuous
 62
     7
370
    25
100
AcDbSpline
210
0.0
220
0.0
230
1.0
 70
     8
 71
     3
 72
    15
 73
    11
 74
     0
 42
0.000000001
 43
0.00000001
 40
0.0
 40
0.0
 40
0.0
 40
0.0
 40
0.0713138588015392
 40
0.2100767327876092
 40
0.3494135786442846
 40
0.4902903278946665
 40
0.6336539329396824
 40
0.7803492561428568
 40
0.9304447001864117
 40
1.0
 40
1.0
 40
1.0
 40
1.0
 10
-42.63355428606132
 20
14.4879472786535
 30
0.0
 10
-42.76132878749359
 20
14.56473706346137
 30
0.0
 10
-43.13772757232388
 20
14.79094480729966
 30
0.0
 10
-43.68958145362904
 20
15.20914972969772
 30
0.0
 10
-44.24818735424935
 20
15.75298732116415
 30
0.0
 10
-44.69739436766676
 20
16.3400559173853
 30
0.0
 10
-45.03848252251409
 20
16.96543093399155
 30
0.0
 10
-45.25866315720654
 20
17.6288862783708
 30
0.0
 10
-45.36271674520209
 20
18.19544655653574
 30
0.0
 10
-45.34416765396311
 20
18.54806075381303
 30
0.0
 10
-45.33829384001766
 20
18.65972068165786
 30
0.0
  0
SPLINE
  5
216
330
20B
100
AcDbEntity
  8
0
  6
Continuous
 62
     7
370
    25
100
AcDbSpline
210
0.0
220
0.0
230
1.0
 70
     8
 71
     3
 72
    10
 73
     6
 74
     0
 42
0.000000001
 43
0.00000001
 40
0.0
 40
0.0
 40
0.0
 40
0.0
 40
0.305157180062419
 40
0.7326650834891919
 40
1.0
 40
1.0
 40
1.0
 40
1.0
 10
-44.23966353642252
 20
15.77325848309059
 30
0.0
 10
-44.12026091639905
 20
15.85669345155477
 30
0.0
 10
-43.83358199719283
 20
16.05701607913712
 30
0.0
 10
-43.33031012058887
 20
16.3091981511261
 30
0.0
 10
-42.93450522258428
 20
16.46599313125992
 30
0.0
 10
-42.78222262524503
 20
16.5263186778737
 30
0.0
  0
SPLINE
  5
218
330
20B
100
AcDbEntity
  8
0
  6
Continuous
 62
     7
370
    25
100
AcDbSpline
210
0.0
220
0.0
230
1.0
 70
     8
 71
     3
 72
    13
 73
     9
 74
     0
 42
0.000000001
 43
0.00000001
 40
0.0
 40
0.0
 40
0.0
 40
0.0
 40
0.1124673854035895
 40
0.3191057542415161
 40
0.5243123841382276
 40
0.7267760497319475
 40
0.9260297131997985
 40
1.0
 40
1.0
 40
1.0
 40
1.0
 10
-80.75457926048573
 20
39.18408715444497
 30
0.0
 10
-80.86239173832139
 20
39.04590594639063
 30
0.0
 10
-81.16829003881936
 20
38.65384189635558
 30
0.0
 10
-81.58148185201283
 20
37.97563271627812
 30
0.0
 10
-81.9507201942915
 20
37.14944784416717
 30
0.0
 10
-82.17647099411751
 20
36.30961364935399
 30
0.0
 10
-82.27463486096737
 20
35.64073371643665
 30
0.0
 10
-82.250305671521
 20
35.26018977720394
 30
0.0
 10
-82.2437189974055
 20
35.15716460573743
 30
0.0
  0
SPLINE
  5
21A
330
20B
100
AcDbEntity
  8
0
  6
Continuous
 62
     7
370
    25
100
AcDbSpline
210
0.0
220
0.0
230
1.0
 70
     8
 71
     3
 72
    15
 73
    11
 74
     0
 42
0.000000001
 43
0.00000001
 40
0.0
 40
0.0
 40
0.0
 40
0.0
 40
0.0643342746523035
 40
0.1923568891539908
 40
0.3226923289565993
 40
0.4578708875610441
 40
0.5986460921292424
 40
0.7437719651711747
 40
0.8909911494154362
 40
1.0
 40
1.0
 40
1.0
 40
1.0
 10
-82.24449313302149
 20
31.85083225366819
 30
0.0
 10
-82.24870340334674
 20
31.74642640282352
 30
0.0
 10
-82.26129194198548
 20
31.43425711535588
 30
0.0
 10
-82.14358948693418
 20
30.91296010383398
 30
0.0
 10
-81.90674393308986
 20
30.30134427585232
 30
0.0
 10
-81.54248280467061
 20
29.70178490865129
 30
0.0
 10
-81.05831755802157
 20
29.11624537345429
 30
0.0
 10
-80.45157157235614
 20
28.55240526242899
 30
0.0
 10
-79.80052627691529
 20
28.0633747393968
 30
0.0
 10
-79.32643802793956
 20
27.77760066442335
 30
0.0
 10
-79.12474341192687
 20
27.65602183929388
 30
0.0
  0
LWPOLYLINE
  5
223
330
20B
100
AcDbEntity
  8
0
  6
Continuous
 62
     7
370
    25
100
AcDbPolyline
 90
       14
 70
   128
 43
0.0
 10
-43.2554049539
 20
14.3558496431
 10
-44.1362486476
 20
14.9412882524
 10
-44.8908243562
 20
15.6065887083
 10
-45.5081286668
 20
16.3420494321
 10
-45.9791598924
 20
17.1369457502
 10
-46.2970493373
 20
17.9796862844
 10
-46.4571614573
 20
18.85798198
 10
-46.4571614573
 20
19.759025308
 10
-46.2970493373
 20
20.6696770278
 10
-45.9791598924
 20
21.5766577866
 10
-45.5081286668
 20
22.4667417626
 10
-44.8908243562
 20
23.3269495272
 10
-44.1362486476
 20
24.1447373141
 10
-43.2554049539
 20
24.908179936
  0
LINE
  5
24E
330
20B
100
AcDbEntity
  8
0
  6
Continuous
 62
     7
370
    25
100
AcDbLine
 10
62.9307826446
 20
-49.4832679341
 30
0.0
 11
73.9402588856
 21
-47.449753877
 31
0.0
  0
LINE
  5
24F
330
20B
100
AcDbEntity
  8
0
  6
Continuous
 62
     7
370
    25
100
AcDbLine
 10
-79.1247434119
 20
27.6560218393
 30
0.0
 11
51.2547669942
 21
-47.6104674259
 31
0.0
  0
LINE
  5
250
330
20B
100
AcDbEntity
  8
0
  6
Continuous
 62
     7
370
    25
100
AcDbLine
 10
39.0629522891
 20
-17.9382765762
 30
0.0
 11
35.4477224199
 21
-20.7558828089
 31
0.0
  0
LINE
  5
251
330
20B
100
AcDbEntity
  8
0
  6
Continuous
 62
     7
370
    25
100
AcDbLine
 10
21.0060560207
 20
-22.2504177534
 30
0.0
 11
-42.6335542861
 21
14.4879472787
 31
0.0
  0
LINE
  5
252
330
20B
100
AcDbEntity
  8
0
  6
Continuous
 62
     7
370
    25
100
AcDbLine
 10
-42.7822226252
 20
16.5263186779
 30
0.0
 11
-39.1520867132
 21
17.8883608143
 31
0.0
  0
LINE
  5
253
330
20B
100
AcDbEntity
  8
0
  6
Continuous
 62
     7
370
    25
100
AcDbLine
 10
-82.2608230149
 20
35.2831767871
 30
0.0
 11
-82.2608230149
 21
31.8192313598
 31
0.0
  0
LINE
  5
254
330
20B
100
AcDbEntity
  8
0
  6
Continuous
 62
     7
370
    25
100
AcDbLine
 10
-74.1390006171
 20
47.3317736621
 30
0.0
 11
-80.7545792605
 21
39.1840871544
 31
0.0
  0
LINE
  5
255
330
20B
100
AcDbEntity
  8
0
  6
Continuous
 62
     7
370
    25
100
AcDbLine
 10
62.6272578885
 20
-43.1070798525
 30
0.0
 11
73.5478158631
 21
-37.5590054772
 31
0.0
  0
LINE
  5
256
330
20B
100
AcDbEntity
  8
0
  6
Continuous
 62
     7
370
    25
100
AcDbLine
 10
-78.7466753471
 20
31.9666156657
 30
0.0
 11
51.632835059
 21
-43.2998735995
 31
0.0
  0
LINE
  5
257
330
20B
100
AcDbEntity
  8
0
  6
Continuous
 62
     7
370
    25
100
AcDbLine
 10
-73.5478158631
 20
47.3574952198
 30
0.0
 11
-80.1001506479
 21
39.2876992734
 31
0.0
  0
LINE
  5
258
330
20B
100
AcDbEntity
  8
0
  6
Continuous
 62
     7
370
    25
100
AcDbLine
 10
-39.5979797464
 20
27.7586720024
 30
0.0
 11
-73.5478158631
 21
47.3574952198
 31
0.0
  0
LINE
  5
259
330
20B
100
AcDbEntity
  8
0
  6
Continuous
 62
     7
370
    25
100
AcDbLine
 10
-43.2554049539
 20
24.908179936
 30
0.0
 11
-39.5979797464
 21
27.7586720024
 31
0.0
  0
LINE
  5
25A
330
20B
100
AcDbEntity
  8
0
  6
Continuous
 62
     7
370
    25
100
AcDbLine
 10
20.3842053529
 20
-22.3825153889
 30
0.0
 11
-43.2554049539
 21
14.3558496431
 31
0.0
  0
LINE
  5
25B
330
20B
100
AcDbEntity
  8
0
  6
Continuous
 62
     7
370
    25
100
AcDbLine
 10
39.5979797464
 20
-17.9601822597
 30
0.0
 11
35.940554539
 21
-20.8106743261
 31
0.0
  0
LINE
  5
25C
330
20B
100
AcDbEntity
  8
0
  6
Continuous
 62
     7
370
    25
100
AcDbLine
 10
73.5478158631
 20
-37.5590054772
 30
0.0
 11
39.5979797464
 21
-17.9601822597
 31
0.0
  0
LINE
  5
25D
330
20B
100
AcDbEntity
  8
0
  6
Continuous
 62
     7
370
    25
100
AcDbLine
 10
63.2636449455
 20
-44.3360512085
 30
0.0
 11
63.2636449455
 21
-48.9949217592
 31
0.0
  0
LINE
  5
25E
330
20B
100
AcDbEntity
  8
0
  6
Continuous
 62
     7
370
    25
100
AcDbLine
 10
51.0476195793
 20
-47.1526226194
 30
0.0
 11
51.0476195793
 21
-44.4420288822
 31
0.0
  0
LINE
  5
25F
330
20B
100
AcDbEntity
  8
0
  6
Continuous
 62
     7
370
    25
100
AcDbLine
 10
74.2462120246
 20
-38.7564737612
 30
0.0
 11
63.2636449455
 21
-44.3360512085
 31
0.0
  0
LINE
  5
260
330
20B
100
AcDbEntity
  8
0
  6
Continuous
 62
     7
370
    25
100
AcDbLine
 10
74.2462120246
 20
-46.9663779801
 30
0.0
 11
74.2462120246
 21
-38.7564737612
 31
0.0
  0
LINE
  5
261
330
20B
100
AcDbEntity
  8
0
  6
Continuous
 62
     7
370
    25
100
AcDbLine
 10
63.2636449455
 20
-48.9949217592
 30
0.0
 11
74.2462120246
 21
-46.9663779801
 31
0.0
  0
LINE
  5
262
330
20B
100
AcDbEntity
  8
0
  6
Continuous
 62
     7
370
    25
100
AcDbLine
 10
51.0476195793
 20
-44.4420288822
 30
0.0
 11
-79.3318908268
 21
30.824460383
 31
0.0
  0
LINE
  5
263
330
20B
100
AcDbEntity
  8
0
  6
Continuous
 62
     7
370
    25
100
AcDbLine
 10
-79.3318908268
 20
28.1138666458
 30
0.0
 11
51.0476195793
 21
-47.1526226194
 31
0.0
  0
LINE
  5
264
330
20B
100
AcDbEntity
  8
0
  6
Continuous
 62
     7
370
    25
100
AcDbLine
 10
-79.3318908268
 20
30.824460383
 30
0.0
 11
-79.3318908268
 21
28.1138666458
 31
0.0
  0
LINE
  5
265
330
20B
100
AcDbEntity
  8
0
  6
Continuous
 62
     7
370
    25
100
AcDbLine
 10
-45.3543496754
 20
18.6694732481
 30
0.0
 11
-45.3553390593
 21
18.5725246197
 31
0.0
  0
LINE
  5
266
330
20B
100
AcDbEntity
  8
0
  6
Continuous
 62
     7
370
    25
100
AcDbLine
 10
-42.4264068712
 20
23.7660246533
 30
0.0
 11
-42.4264068712
 21
17.0543809378
 31
0.0
  0
LINE
  5
267
330
20B
100
AcDbEntity
  8
0
  6
Continuous
 62
     7
370
    25
100
AcDbLine
 10
-38.8908729653
 20
26.5215181432
 30
0.0
 11
-42.4264068712
 21
23.7660246533
 31
0.0
  0
LINE
  5
268
330
20B
100
AcDbEntity
  8
0
  6
Continuous
 62
     7
370
    25
100
AcDbLine
 10
-38.8908729653
 20
18.380928007
 30
0.0
 11
-38.8908729653
 21
26.5215181432
 31
0.0
  0
LINE
  5
269
330
20B
100
AcDbEntity
  8
0
  6
Continuous
 62
     7
370
    25
100
AcDbLine
 10
-42.4264068712
 20
17.0543809378
 30
0.0
 11
-38.8908729653
 21
18.380928007
 31
0.0
  0
LINE
  5
26A
330
20B
100
AcDbEntity
  8
0
  6
Continuous
 62
     7
370
    25
100
AcDbLine
 10
-82.259405549
 20
35.1707988719
 30
0.0
 11
-82.2608230149
 21
35.2831767871
 31
0.0
  0
ARC
  5
26B
330
20B
100
AcDbEntity
  8
0
  6
Continuous
 62
     7
370
    25
100
AcDbCircle
 10
56.9414684763
 20
-32.4494648743
 30
0.0
 40
12.07944362393949
100
AcDbArc
 50
243.9295058828
 51
298.0797193706
  0
ARC
  5
26C
330
20B
100
AcDbEntity
  8
0
  6
Continuous
 62
     7
370
    25
100
AcDbCircle
 10
-76.6983787308
 20
36.1309444458
 30
0.0
 40
4.640813852906525
100
AcDbArc
 50
137.1394926288
 51
243.8089415963
  0
ARC
  5
26D
330
20B
100
AcDbEntity
  8
0
  6
Continuous
 62
     7
370
    25
100
AcDbCircle
 10
26.8889475807
 20
-8.9935658326
 30
0.0
 40
14.88541708094243
100
AcDbArc
 50
244.0881664124
 51
307.4512037646
  0
ARC
  5
26E
330
20B
100
AcDbEntity
  8
0
  6
Continuous
 62
     7
370
    25
100
AcDbCircle
 10
57.0509771221
 20
-32.3254628477
 30
0.0
 40
13.52225847468729
100
AcDbArc
 50
243.6431068511
 51
297.3509842582
  0
ARC
  5
26F
330
20B
100
AcDbEntity
  8
0
  6
Continuous
 62
     7
370
    25
100
AcDbCircle
 10
52.609550813
 20
-44.5213249409
 30
0.0
 40
1.563942787823206
100
AcDbArc
 50
128.6470687879
 51
177.0937054589
  0
ARC
  5
270
330
20B
100
AcDbEntity
  8
0
  6
Continuous
 62
     7
370
    25
100
AcDbCircle
 10
60.6398795362
 20
-44.915438843
 30
0.0
 40
2.68697505640172
100
AcDbArc
 50
12.4523858834
 51
42.2997449729
  0
ARC
  5
271
330
20B
100
AcDbEntity
  8
0
  6
Continuous
 62
     7
370
    25
100
AcDbCircle
 10
59.8064037531
 20
-30.4968808631
 30
0.0
 40
18.81834301037416
100
AcDbArc
 50
242.2613855568
 51
280.5863140907
  0
ARC
  5
272
330
20B
100
AcDbEntity
  8
0
  6
Continuous
 62
     7
370
    25
100
AcDbCircle
 10
72.7545445304
 20
-38.8240589394
 30
0.0
 40
1.493197799888291
100
AcDbArc
 50
2.5942101366
 51
57.9095957629
  0
ARC
  5
273
330
20B
100
AcDbEntity
  8
0
  6
Continuous
 62
     7
370
    25
100
AcDbCircle
 10
-77.7699595931
 20
30.7451643243
 30
0.0
 40
1.563942787823265
100
AcDbArc
 50
128.6470687879
 51
177.0937054589
  0
ARC
  5
274
330
20B
100
AcDbEntity
  8
0
  6
Continuous
 62
     7
370
    25
100
AcDbCircle
 10
73.8194328251
 20
-47.0347623471
 30
0.0
 40
0.4322232140319519
100
AcDbArc
 50
286.2330814419
 51
9.1033265803
  0
ARC
  5
275
330
20B
100
AcDbEntity
  8
0
  6
Continuous
 62
     7
370
    25
100
AcDbCircle
 10
39.314129292
 20
-18.3482398769
 30
0.0
 40
0.4807908014240233
100
AcDbArc
 50
53.8158468273
 51
121.495038345
  0
ARC
  5
276
330
20B
100
AcDbEntity
  8
0
  6
Continuous
 62
     7
370
    25
100
AcDbCircle
 10
-44.2137444398
 20
23.3406699144
 30
0.0
 40
1.837253993886005
100
AcDbArc
 50
13.3863748861
 51
58.5593461064
  0
ARC
  5
277
330
20B
100
AcDbEntity
  8
0
  6
Continuous
 62
     7
370
    25
100
AcDbCircle
 10
-40.4381436727
 20
26.4578148509
 30
0.0
 40
1.548581528861218
100
AcDbArc
 50
2.357615613
 51
57.1434383812
  0
ARC
  5
278
330
20B
100
AcDbEntity
  8
0
  6
Continuous
 62
     7
370
    25
100
AcDbCircle
 10
-39.3629446012
 20
18.3157268936
 30
0.0
 40
0.4765530554757378
100
AcDbArc
 50
296.2612425114
 51
7.8637685821
  0
ARC
  5
279
330
20B
100
AcDbEntity
  8
0
  6
Continuous
 62
     7
370
    25
100
AcDbCircle
 10
-73.8292988426
 20
47.0203437896
 30
0.0
 40
0.4392080994718497
100
AcDbArc
 50
50.1419702147
 51
134.8405934235
  0
ARC
  5
27A
330
20B
100
AcDbEntity
  8
0
  6
Continuous
 62
     8
370
    25
100
AcDbCircle
 10
62.7402405572
 20
-48.9958083932
 30
0.0
 40
0.5234051392032827
100
AcDbArc
 50
291.3661778229
 51
0.0970575327
  0
ARC
  5
27B
330
20B
100
AcDbEntity
  8
0
  6
Continuous
 62
     8
370
    25
100
AcDbCircle
 10
51.533916002
 20
-47.2083758971
 30
0.0
 40
0.4894820106111552
100
AcDbArc
 50
173.4596667766
 51
235.2430399426
  0
ARC
  5
27C
330
20B
100
AcDbEntity
  8
0
  6
Continuous
 62
     8
370
    25
100
AcDbCircle
 10
-78.8455531181
 20
28.0581220798
 30
0.0
 40
0.4895220358140535
100
AcDbArc
 50
173.4612301981
 51
235.2265894085
  0
ARC
  5
27D
330
20B
100
AcDbEntity
  8
0
  6
Continuous
 62
     8
370
    25
100
AcDbCircle
 10
35.6519400931
 20
-21.1617682998
 30
0.0
 40
0.4544945289094599
100
AcDbArc
 50
50.5783150784
 51
116.6264342261
  0
ARC
  5
27E
330
20B
100
AcDbEntity
  8
0
  6
Continuous
 62
     8
370
    25
100
AcDbCircle
 10
20.7945261637
 20
-22.7837181709
 30
0.0
 40
0.5738700550256608
100
AcDbArc
 50
68.4672567258
 51
135.6437306233
  0
ARC
  5
27F
330
20B
100
AcDbEntity
  8
0
  6
Continuous
 62
     8
370
    25
100
AcDbCircle
 10
-42.8453221595
 20
13.9551139287
 30
0.0
 40
0.5733733609654302
100
AcDbArc
 50
68.3252791168
 51
135.6604739629
  0
ARC
  5
280
330
20B
100
AcDbEntity
  8
0
  6
Continuous
 62
     8
370
    25
100
AcDbCircle
 10
-38.6220614048
 20
18.1911277634
 30
0.0
 40
6.749260682494127
100
AcDbArc
 50
124.3098787372
 51
175.9358253418
  0
ARC
  5
281
330
20B
100
AcDbEntity
  8
0
  6
Continuous
 62
     8
370
    25
100
AcDbCircle
 10
-40.5584540671
 20
11.3350976616
 30
0.0
 40
6.016597782112926
100
AcDbArc
 50
108.0873536888
 51
129.7508644053
  0
ARC
  5
282
330
20B
100
AcDbEntity
  8
0
  6
Continuous
 62
     8
370
    25
100
AcDbCircle
 10
-43.0349897646
 20
17.0803139455
 30
0.0
 40
0.6091351730363345
100
AcDbArc
 50
294.8008786933
 51
357.5599814711
  0
ARC
  5
283
330
20B
100
AcDbEntity
  8
0
  6
Continuous
 62
     8
370
    25
100
AcDbCircle
 10
-77.1013964088
 20
35.4859255801
 30
0.0
 40
5.16762645057424
100
AcDbArc
 50
183.4961194877
 51
244.4290520385
  0
ARC
  5
284
330
20B
100
AcDbEntity
  8
0
  6
Continuous
 62
     8
370
    25
100
AcDbCircle
 10
-80.3523881197
 20
38.7624768837
 30
0.0
 40
0.582651097023433
100
AcDbArc
 50
64.3474050988
 51
133.6698694674
  0
ARC
  5
285
330
20B
100
AcDbEntity
  8
0
  6
Continuous
 62
     8
370
    25
100
AcDbCircle
 10
-77.3372304548
 20
32.7008403968
 30
0.0
 40
5.001899458430207
100
AcDbArc
 50
190.1516908709
 51
246.4980311859
  0
VIEWPORT
  5
364
330
20B
100
AcDbEntity
  8
0
100
AcDbViewport
 10
0.0
 20
0.0
 30
0.0
 40
205.6
 41
156.0
 68
     1
 69
     1
 12
0.0
 22
0.0
 13
0.0
 23
0.0
 14
10.0
 24
10.0
 15
10.0
 25
10.0
 16
0.0
 26
0.0
 36
1.0
 17
0.0
 27
0.0
 37
0.0
 42
50.0
 43
0.0
 44
0.0
 45
162.5252918288
 50
0.0
 51
0.0
 72
   100
 90
   557152
  1

281
     0
 71
     1
 74
     0
110
0.0
120
0.0
130
0.0
111
1.0
121
0.0
131
0.0
112
0.0
122
1.0
132
0.0
 79
     0
146
0.0
  0
ENDBLK
  5
20E
330
20B
100
AcDbEntity
  8
0
100
AcDbBlockEnd
  0
BLOCK
  5
288
330
286
100
AcDbEntity
  8
0
100
AcDbBlockBegin
  2
*Paper_Space5
 70
     0
 10
0.0
 20
0.0
 30
0.0
  3
*Paper_Space5
  1

  0
SPLINE
  5
28A
330
286
100
AcDbEntity
  8
0
  6
Continuous
 62
     7
370
    25
100
AcDbSpline
210
0.0
220
0.0
230
1.0
 70
     8
 71
     3
 72
    19
 73
    15
 74
     0
 42
0.000000001
 43
0.00000001
 40
0.0
 40
0.0
 40
0.0
 40
0.0
 40
0.0470044278567583
 40
0.136465290500391
 40
0.2257437348733415
 40
0.3149611127008531
 40
0.4042489657109822
 40
0.4937224733786011
 40
0.583513591358037
 40
0.6737521434253145
 40
0.7645769039224442
 40
0.8561493217126614
 40
0.9486685836789587
 40
1.0
 40
1.0
 40
1.0
 40
1.0
 10
72.40700655837513
 20
-33.20226507750816
 30
0.0
 10
72.58400584445829
 20
-33.24874884744346
 30
0.0
 10
73.09787783684395
 20
-33.38370254131895
 30
0.0
 10
73.98818488010875
 20
-33.57350985348762
 30
0.0
 10
75.07866677162411
 20
-33.75404693576655
 30
0.0
 10
76.19130774233035
 20
-33.88497904744624
 30
0.0
 10
77.31147347097122
 20
-33.96564106615736
 30
0.0
 10
78.42593471360081
 20
-33.99484209782021
 30
0.0
 10
79.52132627327347
 20
-33.97201396015743
 30
0.0
 10
80.58468986175525
 20
-33.89674474899937
 30
0.0
 10
81.60419664461872
 20
-33.76911816479204
 30
0.0
 10
82.56694669409636
 20
-33.58803135499971
 30
0.0
 10
83.33120649927535
 20
-33.39153241452455
 30
0.0
 10
83.7570299173212
 20
-33.24678432160024
 30
0.0
 10
83.90897997700256
 20
-33.19513267346041
 30
0.0
  0
SPLINE
  5
28D
330
286
100
AcDbEntity
  8
0
  6
Continuous
 62
     7
370
    25
100
AcDbSpline
210
0.0
220
0.0
230
1.0
 70
     8
 71
     3
 72
    22
 73
    18
 74
     0
 42
0.000000001
 43
0.00000001
 40
0.0
 40
0.0
 40
0.0
 40
0.0
 40
0.0362895231608892
 40
0.1072010283224323
 40
0.1778925540409272
 40
0.2483874011574504
 40
0.318775516604377
 40
0.3890845460753312
 40
0.459307895749361
 40
0.529423311776265
 40
0.5994041692934282
 40
0.6692258846849033
 40
0.7388692355562475
 40
0.8083218812139868
 40
0.8775790940731847
 40
0.946644638672662
 40
1.0
 40
1.0
 40
1.0
 40
1.0
 10
46.40189324453019
 20
-11.60478321904806
 30
0.0
 10
46.31386312429152
 20
-11.7146284111238
 30
0.0
 10
46.05381783873911
 20
-12.03911648705104
 30
0.0
 10
45.53679434748461
 20
-12.562469181967
 30
0.0
 10
44.81994524876602
 20
-13.15471819584116
 30
0.0
 10
44.00628248031853
 20
-13.70315337204202
 30
0.0
 10
43.10801175954015
 20
-14.19973509342362
 30
0.0
 10
42.13584851556905
 20
-14.63710069337766
 30
0.0
 10
41.1025226909836
 20
-15.00876926643629
 30
0.0
 10
40.02163600276773
 20
-15.30927022995614
 30
0.0
 10
38.90760470319655
 20
-15.53428700016218
 30
0.0
 10
37.77527857234142
 20
-15.68077290371987
 30
0.0
 10
36.63986823538996
 20
-15.74681122741704
 30
0.0
 10
35.51610147347522
 20
-15.73230214798624
 30
0.0
 10
34.42026462955176
 20
-15.63648113599686
 30
0.0
 10
33.44094928473837
 20
-15.47985864262379
 30
0.0
 10
32.85105238167817
 20
-15.33152215205858
 30
0.0
 10
32.59395444427629
 20
-15.26687186220641
 30
0.0
  0
SPLINE
  5
290
330
286
100
AcDbEntity
  8
0
  6
Continuous
 62
     7
370
    25
100
AcDbSpline
210
0.0
220
0.0
230
1.0
 70
     8
 71
     3
 72
    18
 73
    14
 74
     0
 42
0.000000001
 43
0.00000001
 40
0.0
 40
0.0
 40
0.0
 40
0.0
 40
0.0525936174744919
 40
0.1536421342346813
 40
0.254601900002784
 40
0.3555804871404692
 40
0.4567889346848136
 40
0.55860714430545
 40
0.6616149521977913
 40
0.7666025692366738
 40
0.874410321644102
 40
0.9853649729184969
 40
1.0
 40
1.0
 40
1.0
 40
1.0
 10
-47.00367650669153
 20
6.366058659346485
 30
0.0
 10
-47.17174170619079
 20
6.414141381874029
 30
0.0
 10
-47.66271185012826
 20
6.554605804434973
 30
0.0
 10
-48.42494723849509
 20
6.840013904622207
 30
0.0
 10
-49.25302239510233
 20
7.238675720265984
 30
0.0
 10
-49.98780269103229
 20
7.693532429884446
 30
0.0
 10
-50.62238574355258
 20
8.195571819724602
 30
0.0
 10
-51.15134872272167
 20
8.737485607732967
 30
0.0
 10
-51.57054716504731
 20
9.312963345114596
 30
0.0
 10
-51.88202856568792
 20
9.917726259172165
 30
0.0
 10
-52.0680786574445
 20
10.55252947001679
 30
0.0
 10
-52.1484887110091
 20
11.01543122682162
 30
0.0
 10
-52.12737023706401
 20
11.27186685985557
 30
0.0
 10
-52.1249092908927
 20
11.30174943048752
 30
0.0
  0
SPLINE
  5
291
330
286
100
AcDbEntity
  8
0
  6
Continuous
 62
     7
370
    25
100
AcDbSpline
210
0.0
220
0.0
230
1.0
 70
     8
 71
     3
 72
    10
 73
     6
 74
     0
 42
0.000000001
 43
0.00000001
 40
0.0
 40
0.0
 40
0.0
 40
0.0
 40
0.2741215252716175
 40
0.7525714646987313
 40
1.0
 40
1.0
 40
1.0
 40
1.0
 10
-95.88242954003414
 20
21.50068427518447
 30
0.0
 10
-95.93293590192735
 20
21.35038376803134
 30
0.0
 10
-96.07159574160585
 20
20.93774972661079
 30
0.0
 10
-96.18807511521493
 20
20.37529167407486
 30
0.0
 10
-96.18666607644205
 20
19.96611752672435
 30
0.0
 10
-96.18618578061862
 20
19.82664327106474
 30
0.0
  0
SPLINE
  5
294
330
286
100
AcDbEntity
  8
0
  6
Continuous
 62
     7
370
    25
100
AcDbSpline
210
0.0
220
0.0
230
1.0
 70
     8
 71
     3
 72
    18
 73
    14
 74
     0
 42
0.000000001
 43
0.00000001
 40
0.0
 40
0.0
 40
0.0
 40
0.0
 40
0.0032441122164523
 40
0.0916826737173077
 40
0.1803552540085003
 40
0.2730317433218181
 40
0.3724290163795524
 40
0.47869431100822
 40
0.5889077969141068
 40
0.6992592702164289
 40
0.8083444634000178
 40
0.9161812192380262
 40
1.0
 40
1.0
 40
1.0
 40
1.0
 10
-96.20109086986886
 20
15.46146310865674
 30
0.0
 10
-96.20186891294915
 20
15.45483940467724
 30
0.0
 10
-96.22385738471289
 20
15.26764523560001
 30
0.0
 10
-96.14535761480117
 20
14.89442203150065
 30
0.0
 10
-95.96728226007471
 20
14.3707885187601
 30
0.0
 10
-95.66064741167565
 20
13.86836757453091
 30
0.0
 10
-95.24041832045643
 20
13.38131743421672
 30
0.0
 10
-94.69352143710906
 20
12.90916794695172
 30
0.0
 10
-94.02481053687414
 20
12.46053298865263
 30
0.0
 10
-93.24981593595912
 20
12.04546279082803
 30
0.0
 10
-92.3869039691818
 20
11.67170122738966
 30
0.0
 10
-91.52169157426147
 20
11.36179323883655
 30
0.0
 10
-90.92633529651592
 20
11.19181283237288
 30
0.0
 10
-90.66596172106435
 20
11.11747346980623
 30
0.0
  0
LWPOLYLINE
  5
299
330
286
100
AcDbEntity
  8
0
  6
Continuous
 62
     7
370
    25
100
AcDbPolyline
 90
       11
 70
   128
 43
0.0
 10
-95.0247039253
 20
21.9203372968
 10
-95.2314596708
 20
21.1452638658
 10
-95.281165912
 20
20.3701570468
 10
-95.1729501956
 20
19.6086216629
 10
-94.9087119444
 20
18.8740243288
 10
-94.4930891187
 20
18.1792588374
 10
-93.93337681
 20
17.5365198454
 10
-93.2393991956
 20
16.9570888306
 10
-92.4233371034
 20
16.451136077
 10
-91.4995142113
 20
16.0275421639
 10
-90.4841456354
 20
15.6937420929
  0
LWPOLYLINE
  5
29D
330
286
100
AcDbEntity
  8
0
  6
Continuous
 62
     7
370
    25
100
AcDbPolyline
 90
       14
 70
   128
 43
0.0
 10
-47.3463908043
 20
6.1668779333
 10
-48.4816137889
 20
6.5341435197
 10
-49.5254224996
 20
6.9931807659
 10
-50.462595855
 20
7.5372958752
 10
-51.2794677572
 20
8.1585544239
 10
-51.9641263745
 20
8.8478970636
 10
-52.5065878425
 20
9.5952716263
 10
-52.8989418514
 20
10.3897797079
 10
-53.1354669964
 20
11.2198355914
 10
-53.2127142082
 20
12.0733351931
 10
-53.1295570486
 20
12.9378325668
 10
-52.887208136
 20
13.8007213941
 10
-52.4892014635
 20
14.6494188128
 10
-51.9413408646
 20
15.4715489035
  0
LWPOLYLINE
  5
29F
330
286
100
AcDbEntity
  8
0
  6
Continuous
 62
     7
370
    25
100
AcDbPolyline
 90
       14
 70
   128
 43
0.0
 10
47.1134887633
 20
-11.4494313011
 10
46.4237632791
 20
-12.2330055558
 10
45.6022306603
 20
-12.9665976974
 10
44.6608707025
 20
-13.6395103005
 10
43.6134105535
 20
-14.2419307842
 10
42.4751245411
 20
-14.7650745013
 10
41.2626114385
 20
-15.2013128383
 10
39.993552417
 20
-15.544284458
 10
38.686453215
 20
-15.7889880618
 10
37.360374282
 20
-15.9318553203
 10
36.034652835
 20
-15.9708029069
 10
34.7286208779
 20
-15.9052628783
 10
33.4613232976
 20
-15.7361909556
 10
32.2512401466
 20
-15.4660525882
  0
LWPOLYLINE
  5
2BA
330
286
100
AcDbEntity
  8
0
  6
Continuous
 62
     8
370
    25
100
AcDbPolyline
 90
        7
 70
   128
 43
0.0
 10
72.2025763611
 20
-32.6927782453
 10
72.2096795587
 20
-32.8348266736
 10
72.2307729274
 20
-32.9586852134
 10
72.2652143766
 20
-33.0605835608
 10
72.3119554946
 20
-33.1374198893
 10
72.369573463
 20
-33.1868552701
 10
72.4069404947
 20
-33.2022471076
  0
LWPOLYLINE
  5
2BB
330
286
100
AcDbEntity
  8
0
  6
Continuous
 62
     8
370
    25
100
AcDbPolyline
 90
        7
 70
   128
 43
0.0
 10
-90.8703919183
 20
11.626960302
 10
-90.8632887207
 20
11.4849118737
 10
-90.842195352
 20
11.361053334
 10
-90.8077539029
 20
11.2591549865
 10
-90.7610127849
 20
11.182318658
 10
-90.7033948164
 20
11.1328832772
 10
-90.6659617211
 20
11.1174734698
  0
LWPOLYLINE
  5
2C2
330
286
100
AcDbEntity
  8
0
  6
Continuous
 62
     8
370
    25
100
AcDbPolyline
 90
       11
 70
   128
 43
0.0
 10
-90.8703919183
 20
14.4724179732
 10
-91.8999341923
 20
14.804267975
 10
-92.8468224008
 20
15.2169842002
 10
-93.6973175442
 20
15.7045782879
 10
-94.4390792504
 20
16.2599754273
 10
-95.0613448297
 20
16.87511701
 10
-95.5550854374
 20
17.5410775577
 10
-95.9131370788
 20
18.2481942277
 10
-96.130304556
 20
18.9862070171
 10
-96.2034368489
 20
19.7444076315
 10
-96.203438029
 20
19.7474897976
  0
LWPOLYLINE
  5
2C4
330
286
100
AcDbEntity
  8
0
  6
Continuous
 62
     8
370
    25
100
AcDbPolyline
 90
       11
 70
   128
 43
0.0
 10
-96.203438029
 20
15.4620686136
 10
-96.2034368489
 20
15.4601464408
 10
-96.130304556
 20
14.9798481099
 10
-95.9131370788
 20
14.4974047296
 10
-95.5550854374
 20
14.0198163759
 10
-95.0613448297
 20
13.5540126803
 10
-94.4390792504
 20
13.1067522832
 10
-93.6973175442
 20
12.6845247685
 10
-92.8468224008
 20
12.2934565024
 10
-91.8999341923
 20
11.9392217414
 10
-90.8703919183
 20
11.626960302
  0
LINE
  5
2C5
330
286
100
AcDbEntity
  8
0
  6
Continuous
 62
     7
370
    25
100
AcDbLine
 10
-90.6659617211
 20
11.1174734698
 30
0.0
 11
72.4070065584
 21
-33.2022650775
 31
0.0
  0
LINE
  5
2C6
330
286
100
AcDbEntity
  8
0
  6
Continuous
 62
     7
370
    25
100
AcDbLine
 10
83.908979977
 20
-33.1951326735
 30
0.0
 11
92.4755289106
 21
-30.1385102414
 31
0.0
  0
LINE
  5
2C7
330
286
100
AcDbEntity
  8
0
  6
Continuous
 62
     7
370
    25
100
AcDbLine
 10
32.5939544443
 20
-15.2668718622
 30
0.0
 11
-47.0036765067
 21
6.3660586593
 31
0.0
  0
LINE
  5
2C8
330
286
100
AcDbEntity
  8
0
  6
Continuous
 62
     7
370
    25
100
AcDbLine
 10
48.7781064616
 20
-8.5217686796
 30
0.0
 11
46.4018932445
 21
-11.604783219
 31
0.0
  0
LINE
  5
2C9
330
286
100
AcDbEntity
  8
0
  6
Continuous
 62
     7
370
    25
100
AcDbLine
 10
-49.9715028342
 20
7.7017681635
 30
0.0
 11
-48.921143675
 21
8.3893466099
 31
0.0
  0
LINE
  5
2CA
330
286
100
AcDbEntity
  8
0
  6
Continuous
 62
     7
370
    25
100
AcDbLine
 10
-96.203438029
 20
19.7474897976
 30
0.0
 11
-96.203438029
 21
15.4620686136
 31
0.0
  0
LINE
  5
2CB
330
286
100
AcDbEntity
  8
0
  6
Continuous
 62
     7
370
    25
100
AcDbLine
 10
-92.8216349705
 20
29.7961047213
 30
0.0
 11
-95.88242954
 21
21.5006842752
 31
0.0
  0
LINE
  5
2CC
330
286
100
AcDbEntity
  8
0
  6
Continuous
 62
     7
370
    25
100
AcDbLine
 10
83.4924732934
 20
-26.5968063109
 30
0.0
 11
91.9903795152
 21
-19.8580102326
 31
0.0
  0
LINE
  5
2CD
330
286
100
AcDbEntity
  8
0
  6
Continuous
 62
     7
370
    25
100
AcDbLine
 10
-90.4841456354
 20
15.6937420929
 30
0.0
 11
72.5888226441
 21
-28.6259964544
 31
0.0
  0
LINE
  5
2CE
330
286
100
AcDbEntity
  8
0
  6
Continuous
 62
     7
370
    25
100
AcDbLine
 10
-91.9903795152
 20
30.144017841
 30
0.0
 11
-95.0247039253
 21
21.9203372968
 31
0.0
  0
LINE
  5
2CF
330
286
100
AcDbEntity
  8
0
  6
Continuous
 62
     7
370
    25
100
AcDbLine
 10
-49.5274148139
 20
18.6034939065
 30
0.0
 11
-91.9903795152
 21
30.144017841
 31
0.0
  0
LINE
  5
2D0
330
286
100
AcDbEntity
  8
0
  6
Continuous
 62
     7
370
    25
100
AcDbLine
 10
-51.9413408646
 20
15.4715489035
 30
0.0
 11
-49.5274148139
 21
18.6034939065
 31
0.0
  0
LINE
  5
2D1
330
286
100
AcDbEntity
  8
0
  6
Continuous
 62
     7
370
    25
100
AcDbLine
 10
32.2512401466
 20
-15.4660525882
 30
0.0
 11
-47.3463908043
 21
6.1668779333
 31
0.0
  0
LINE
  5
2D2
330
286
100
AcDbEntity
  8
0
  6
Continuous
 62
     7
370
    25
100
AcDbLine
 10
49.5274148139
 20
-8.3174862981
 30
0.0
 11
47.1134887633
 21
-11.4494313011
 31
0.0
  0
LINE
  5
2D3
330
286
100
AcDbEntity
  8
0
  6
Continuous
 62
     7
370
    25
100
AcDbLine
 10
91.9903795152
 20
-19.8580102326
 30
0.0
 11
49.5274148139
 21
-8.3174862981
 31
0.0
  0
LINE
  5
2D4
330
286
100
AcDbEntity
  8
0
  6
Continuous
 62
     7
370
    25
100
AcDbLine
 10
84.3177437492
 20
-27.7062877555
 30
0.0
 11
84.3177437492
 21
-32.5969575618
 31
0.0
  0
LINE
  5
2D5
330
286
100
AcDbEntity
  8
0
  6
Continuous
 62
     7
370
    25
100
AcDbLine
 10
72.2025763611
 20
-32.6927782453
 30
0.0
 11
72.2025763611
 21
-29.8473205741
 31
0.0
  0
LINE
  5
2D6
330
286
100
AcDbEntity
  8
0
  6
Continuous
 62
     7
370
    25
100
AcDbLine
 10
92.8639027761
 20
-20.9292274501
 30
0.0
 11
84.3177437492
 21
-27.7062877555
 31
0.0
  0
LINE
  5
2D7
330
286
100
AcDbEntity
  8
0
  6
Continuous
 62
     7
370
    25
100
AcDbLine
 10
92.8639027761
 20
-29.5476104335
 30
0.0
 11
92.8639027761
 21
-20.9292274501
 31
0.0
  0
LINE
  5
2D8
330
286
100
AcDbEntity
  8
0
  6
Continuous
 62
     7
370
    25
100
AcDbLine
 10
84.3177437492
 20
-32.5969575618
 30
0.0
 11
92.8639027761
 21
-29.5476104335
 31
0.0
  0
LINE
  5
2D9
330
286
100
AcDbEntity
  8
0
  6
Continuous
 62
     7
370
    25
100
AcDbLine
 10
72.2025763611
 20
-29.8473205741
 30
0.0
 11
-90.8703919183
 21
14.4724179732
 31
0.0
  0
LINE
  5
2DA
330
286
100
AcDbEntity
  8
0
  6
Continuous
 62
     7
370
    25
100
AcDbLine
 10
-90.8703919183
 20
11.626960302
 30
0.0
 11
72.2025763611
 21
-32.6927782453
 31
0.0
  0
LINE
  5
2DB
330
286
100
AcDbEntity
  8
0
  6
Continuous
 62
     7
370
    25
100
AcDbLine
 10
-90.8703919183
 20
14.4724179732
 30
0.0
 11
-90.8703919183
 21
11.626960302
 31
0.0
  0
LINE
  5
2DC
330
286
100
AcDbEntity
  8
0
  6
Continuous
 62
     7
370
    25
100
AcDbLine
 10
-48.6429966923
 20
17.492934318
 30
0.0
 11
-50.9764736369
 21
14.4653678959
 31
0.0
  0
LINE
  5
2DD
330
286
100
AcDbEntity
  8
0
  6
Continuous
 62
     7
370
    25
100
AcDbLine
 10
-48.6429966923
 20
8.9473140972
 30
0.0
 11
-48.6429966923
 21
17.492934318
 31
0.0
  0
LINE
  5
2DE
330
286
100
AcDbEntity
  8
0
  6
Continuous
 62
     7
370
    25
100
AcDbLine
 10
-96.203438029
 20
19.7474897976
 30
0.0
 11
-96.2028758096
 21
19.8147997958
 31
0.0
  0
LINE
  5
2DF
330
286
100
AcDbEntity
  8
0
  6
Continuous
 62
     8
370
    25
100
AcDbLine
 10
-50.9764736369
 20
14.4653678959
 30
0.0
 11
-50.9764736369
 21
8.5824801784
 31
0.0
  0
LINE
  5
2E0
330
286
100
AcDbEntity
  8
0
  6
Continuous
 62
     8
370
    25
100
AcDbLine
 10
-50.2317223628
 20
7.9073140945
 30
0.0
 11
-48.6429966923
 21
8.9473140972
 31
0.0
  0
ARC
  5
2E1
330
286
100
AcDbEntity
  8
0
  6
Continuous
 62
     7
370
    25
100
AcDbCircle
 10
75.911496939
 20
-16.1706208912
 30
0.0
 40
12.89094817654783
100
AcDbArc
 50
255.0632540602
 51
306.0212484477
  0
ARC
  5
2E2
330
286
100
AcDbEntity
  8
0
  6
Continuous
 62
     7
370
    25
100
AcDbCircle
 10
75.9549004593
 20
-15.7323493416
 30
0.0
 40
14.60521650071066
100
AcDbArc
 50
255.1128113427
 51
304.931235289
  0
ARC
  5
2E3
330
286
100
AcDbEntity
  8
0
  6
Continuous
 62
     7
370
    25
100
AcDbCircle
 10
74.3861529483
 20
-29.8661435399
 30
0.0
 40
2.183657714957087
100
AcDbArc
 50
145.3945582162
 51
179.5061085608
  0
ARC
  5
2E4
330
286
100
AcDbEntity
  8
0
  6
Continuous
 62
     7
370
    25
100
AcDbCircle
 10
82.7237988456
 20
-28.0302457977
 30
0.0
 40
1.626532867468885
100
AcDbArc
 50
11.4884806899
 51
61.7977977417
  0
ARC
  5
2E5
330
286
100
AcDbEntity
  8
0
  6
Continuous
 62
     7
370
    25
100
AcDbCircle
 10
78.0990465189
 20
-12.2743446785
 30
0.0
 40
21.25278310354041
100
AcDbArc
 50
253.8922498124
 51
287.0140531895
  0
ARC
  5
2E6
330
286
100
AcDbEntity
  8
0
  6
Continuous
 62
     7
370
    25
100
AcDbCircle
 10
91.6839671782
 20
-20.9996394849
 30
0.0
 40
1.182034631402585
100
AcDbArc
 50
3.4150455693
 51
74.9759482622
  0
ARC
  5
2E7
330
286
100
AcDbEntity
  8
0
  6
Continuous
 62
     7
370
    25
100
AcDbCircle
 10
-88.6868153311
 20
14.4535950074
 30
0.0
 40
2.183657714957286
100
AcDbArc
 50
145.3945582162
 51
179.5061085608
  0
ARC
  5
2E8
330
286
100
AcDbEntity
  8
0
  6
Continuous
 62
     7
370
    25
100
AcDbCircle
 10
92.2669537181
 20
-29.5783415452
 30
0.0
 40
0.5977395579207122
100
AcDbArc
 50
290.4224894859
 51
2.9470018846
  0
ARC
  5
2E9
330
286
100
AcDbEntity
  8
0
  6
Continuous
 62
     7
370
    25
100
AcDbCircle
 10
49.3027777165
 20
-8.9698905572
 30
0.0
 40
0.6899950310052738
100
AcDbArc
 50
71.0002908108
 51
139.4993500999
  0
ARC
  5
2EA
330
286
100
AcDbEntity
  8
0
  6
Continuous
 62
     7
370
    25
100
AcDbCircle
 10
-52.2687029748
 20
14.1919128783
 30
0.0
 40
1.320846057740297
100
AcDbArc
 50
11.9483706451
 51
75.6501065241
  0
ARC
  5
2EB
330
286
100
AcDbEntity
  8
0
  6
Continuous
 62
     7
370
    25
100
AcDbCircle
 10
-49.8639940704
 20
17.4280092102
 30
0.0
 40
1.222722318069197
100
AcDbArc
 50
3.0437695287
 51
74.0218713681
  0
ARC
  5
2EC
330
286
100
AcDbEntity
  8
0
  6
Continuous
 62
     7
370
    25
100
AcDbCircle
 10
-49.2853882771
 20
8.9192345948
 30
0.0
 40
0.643004981908405
100
AcDbArc
 50
304.5046028849
 51
2.5028558131
  0
ARC
  5
2ED
330
286
100
AcDbEntity
  8
0
  6
Continuous
 62
     7
370
    25
100
AcDbCircle
 10
-92.2224379568
 20
29.5314662362
 30
0.0
 40
0.6550347998231657
100
AcDbArc
 50
69.251357923
 51
156.1710996145
  0
ARC
  5
2EE
330
286
100
AcDbEntity
  8
0
  6
Continuous
 62
     8
370
    25
100
AcDbCircle
 10
83.6422105874
 20
-32.57409585
 30
0.0
 40
0.6759198995792344
100
AcDbArc
 50
293.2611654416
 51
358.0617089732
  0
ARC
  5
2EF
330
286
100
AcDbEntity
  8
0
  6
Continuous
 62
     8
370
    25
100
AcDbCircle
 10
46.8711486165
 20
-12.0473602613
 30
0.0
 40
0.6451726809585842
100
AcDbArc
 50
67.9373253689
 51
136.5561338802
  0
ARC
  5
2F0
330
286
100
AcDbEntity
  8
0
  6
Continuous
 62
     8
370
    25
100
AcDbCircle
 10
32.5726617488
 20
-15.6247229652
 30
0.0
 40
0.3584524164269353
100
AcDbArc
 50
86.5706808966
 51
153.7266636084
  0
ARC
  5
2F1
330
286
100
AcDbEntity
  8
0
  6
Continuous
 62
     8
370
    25
100
AcDbCircle
 10
-47.024879033
 20
6.0081092823
 30
0.0
 40
0.3585767751207289
100
AcDbArc
 50
86.6101421807
 51
153.7189606331
  0
ARC
  5
2F2
330
286
100
AcDbEntity
  8
0
  6
Continuous
 62
     8
370
    25
100
AcDbCircle
 10
-46.9415599624
 20
11.1982842982
 30
0.0
 40
5.191759200447509
100
AcDbArc
 50
141.0027879768
 51
178.8534724268
  0
ARC
  5
2F3
330
286
100
AcDbEntity
  8
0
  6
Continuous
 62
     8
370
    25
100
AcDbCircle
 10
-95.1732108862
 20
21.1374135362
 30
0.0
 40
0.7968838888760241
100
AcDbArc
 50
79.2595897722
 51
152.8527126848
  0
VIEWPORT
  5
366
330
286
100
AcDbEntity
  8
0
100
AcDbViewport
 10
0.0
 20
0.0
 30
0.0
 40
205.6
 41
156.0
 68
     1
 69
     1
 12
0.0
 22
0.0
 13
0.0
 23
0.0
 14
10.0
 24
10.0
 15
10.0
 25
10.0
 16
0.0
 26
0.0
 36
1.0
 17
0.0
 27
0.0
 37
0.0
 42
50.0
 43
0.0
 44
0.0
 45
162.5252918288
 50
0.0
 51
0.0
 72
   100
 90
   557152
  1

281
     0
 71
     1
 74
     0
110
0.0
120
0.0
130
0.0
111
1.0
121
0.0
131
0.0
112
0.0
122
1.0
132
0.0
 79
     0
146
0.0
  0
ENDBLK
  5
289
330
286
100
AcDbEntity
  8
0
100
AcDbBlockEnd
  0
BLOCK
  5
2F6
330
2F4
100
AcDbEntity
  8
0
100
AcDbBlockBegin
  2
*Paper_Space6
 70
     0
 10
0.0
 20
0.0
 30
0.0
  3
*Paper_Space6
  1

  0
SPLINE
  5
2F8
330
2F4
100
AcDbEntity
  8
0
  6
Continuous
 62
     7
370
    25
100
AcDbSpline
210
0.0
220
0.0
230
1.0
 70
     8
 71
     3
 72
    19
 73
    15
 74
     0
 42
0.000000001
 43
0.00000001
 40
0.0
 40
0.0
 40
0.0
 40
0.0
 40
0.0469220301000841
 40
0.1363361611983337
 40
0.2257336950627892
 40
0.3151788722311122
 40
0.4047642062502825
 40
0.4945976782655866
 40
0.5847836979597079
 40
0.6754349618098544
 40
0.7666918170673472
 40
0.8587580640996826
 40
0.9519733948127682
 40
1.0
 40
1.0
 40
1.0
 40
1.0
 10
79.39542573140041
 20
-19.34628405018788
 30
0.0
 10
79.57669596651293
 20
-19.36842540234728
 30
0.0
 10
80.10339287076118
 20
-19.43275908421729
 30
0.0
 10
81.00510117791809
 20
-19.52385953815273
 30
0.0
 10
82.09606161255667
 20
-19.61115812761191
 30
0.0
 10
83.19486911277777
 20
-19.67516334104761
 30
0.0
 10
84.28632414420711
 20
-19.7153667641967
 30
0.0
 10
85.35664365390686
 20
-19.73109021017981
 30
0.0
 10
86.39224094210566
 20
-19.72199545674747
 30
0.0
 10
87.3801318233007
 20
-19.68785590608417
 30
0.0
 10
88.30892526268697
 20
-19.62869472054428
 30
0.0
 10
89.16688048314394
 20
-19.54385575441725
 30
0.0
 10
89.82082334137937
 20
-19.45259489276685
 30
0.0
 10
90.17388394359568
 20
-19.38565218427891
 30
0.0
 10
90.29393541444053
 20
-19.36288960310767
 30
0.0
  0
SPLINE
  5
2FB
330
2F4
100
AcDbEntity
  8
0
  6
Continuous
 62
     7
370
    25
100
AcDbSpline
210
0.0
220
0.0
230
1.0
 70
     8
 71
     3
 72
    22
 73
    18
 74
     0
 42
0.000000001
 43
0.00000001
 40
0.0
 40
0.0
 40
0.0
 40
0.0
 40
0.0360480347007523
 40
0.1050432892766539
 40
0.1737115111240495
 40
0.2423195865062642
 40
0.3110874958668552
 40
0.3800882566384052
 40
0.4492922239237512
 40
0.5186333628625159
 40
0.5880398911043274
 40
0.6574423215119893
 40
0.7267759736789005
 40
0.7960037886776055
 40
0.865097413966773
 40
0.9340337378266114
 40
1.0
 40
1.0
 40
1.0
 40
1.0
 10
49.81217823823307
 20
-3.688296849867448
 30
0.0
 10
49.75046116753065
 20
-3.767588954651551
 30
0.0
 10
49.57061879429399
 20
-3.998644643798938
 30
0.0
 10
49.18203565661991
 20
-4.389154096957258
 30
0.0
 10
48.61087246695088
 20
-4.847511524715118
 30
0.0
 10
47.93073313035929
 20
-5.289534397325266
 30
0.0
 10
47.15101071822465
 20
-5.706453482133908
 30
0.0
 10
46.28005404368329
 20
-6.090736972203572
 30
0.0
 10
45.32889951476089
 20
-6.435362439317204
 30
0.0
 10
44.31009178546461
 20
-6.734178647498297
 30
0.0
 10
43.23745230128414
 20
-6.982021598009372
 30
0.0
 10
42.12562674427369
 20
-7.174822074561613
 30
0.0
 10
40.98984545643199
 20
-7.309472380994107
 30
0.0
 10
39.84513535274405
 20
-7.384411627568916
 30
0.0
 10
38.7079483852479
 20
-7.397344605639759
 30
0.0
 10
37.60426535530809
 20
-7.354189425432972
 30
0.0
 10
36.90414465535923
 20
-7.27761358895007
 30
0.0
 10
36.56179135433007
 20
-7.240168630672294
 30
0.0
  0
SPLINE
  5
2FE
330
2F4
100
AcDbEntity
  8
0
  6
Continuous
 62
     7
370
    25
100
AcDbSpline
210
0.0
220
0.0
230
1.0
 70
     8
 71
     3
 72
    19
 73
    15
 74
     0
 42
0.000000001
 43
0.00000001
 40
0.0
 40
0.0
 40
0.0
 40
0.0
 40
0.0474363609382848
 40
0.1377110084669478
 40
0.2277097718077864
 40
0.3173391715809461
 40
0.4065657864950512
 40
0.4954043455176313
 40
0.5839990586830918
 40
0.6726534210936294
 40
0.7621125474241752
 40
0.8540781825794043
 40
0.9517779161725222
 40
1.0
 40
1.0
 40
1.0
 40
1.0
 10
-47.62549985084252
 20
3.366433082169015
 30
0.0
 10
-47.80836471623174
 20
3.391227978552727
 30
0.0
 10
-48.33923395931483
 20
3.463209262915518
 30
0.0
 10
-49.17690917883824
 20
3.625240345805961
 30
0.0
 10
-50.1039153062224
 20
3.86688507150344
 30
0.0
 10
-50.9461894426096
 20
4.155859463712077
 30
0.0
 10
-51.6929417895516
 20
4.48434213309327
 30
0.0
 10
-52.33447980365239
 20
4.844296001300263
 30
0.0
 10
-52.86396395279991
 20
5.2257715183937
 30
0.0
 10
-53.27750262613322
 20
5.617928405130387
 30
0.0
 10
-53.57866086979759
 20
6.010414848117939
 30
0.0
 10
-53.76811770191231
 20
6.399975461572637
 30
0.0
 10
-53.85981841428583
 20
6.713270809990828
 30
0.0
 10
-53.85011861241594
 20
6.910704620342902
 30
0.0
 10
-53.846913165368
 20
6.975949625657866
 30
0.0
  0
SPLINE
  5
2FF
330
2F4
100
AcDbEntity
  8
0
  6
Continuous
 62
     7
370
    25
100
AcDbSpline
210
0.0
220
0.0
230
1.0
 70
     8
 71
     3
 72
     9
 73
     5
 74
     0
 42
0.000000001
 43
0.00000001
 40
0.0
 40
0.0
 40
0.0
 40
0.0
 40
0.5472703484248891
 40
1.0
 40
1.0
 40
1.0
 40
1.0
 10
-99.68575262740836
 20
11.01503907583064
 30
0.0
 10
-99.71489728258004
 20
10.88173163509487
 30
0.0
 10
-99.76815186736718
 20
10.63814555169122
 30
0.0
 10
-99.7602576823212
 20
10.39090499378253
 30
0.0
 10
-99.75668375067586
 20
10.2789718621453
 30
0.0
  0
SPLINE
  5
301
330
2F4
100
AcDbEntity
  8
0
  6
Continuous
 62
     7
370
    25
100
AcDbSpline
210
0.0
220
0.0
230
1.0
 70
     8
 71
     3
 72
    20
 73
    16
 74
     0
 42
0.000000001
 43
0.00000001
 40
0.0
 40
0.0
 40
0.0
 40
0.0
 40
0.0030594452895512
 40
0.0589430434722921
 40
0.1134465078530993
 40
0.171525830685385
 40
0.2397741779006412
 40
0.3274997433291779
 40
0.4383111897366802
 40
0.5346660072281603
 40
0.635885592836554
 40
0.7339816038811733
 40
0.8303455601035401
 40
0.925712104770098
 40
1.0
 40
1.0
 40
1.0
 40
1.0
 10
-99.77026735468172
 20
5.235599066016826
 30
0.0
 10
-99.77138101761501
 20
5.228307296594471
 30
0.0
 10
-99.79283676415685
 20
5.087824613828517
 30
0.0
 10
-99.71866654225664
 20
4.812081304557029
 30
0.0
 10
-99.56327298665232
 20
4.476849391169154
 30
0.0
 10
-99.33114074273783
 20
4.198453191527968
 30
0.0
 10
-99.0296303271845
 20
3.946500726632843
 30
0.0
 10
-98.6079896228926
 20
3.694086506824212
 30
0.0
 10
-98.05915176083815
 20
3.452792418872827
 30
0.0
 10
-97.37810528514889
 20
3.220595514079293
 30
0.0
 10
-96.62536177437062
 20
3.012584469711351
 30
0.0
 10
-95.77690877961797
 20
2.818955036838045
 30
0.0
 10
-94.86143421935442
 20
2.644799259275147
 30
0.0
 10
-93.95883594804985
 20
2.499318483002842
 30
0.0
 10
-93.34794854096715
 20
2.418863696994517
 30
0.0
 10
-93.08045457073966
 20
2.383634340678358
 30
0.0
  0
LWPOLYLINE
  5
306
330
2F4
100
AcDbEntity
  8
0
  6
Continuous
 62
     7
370
    25
100
AcDbPolyline
 90
       11
 70
   128
 43
0.0
 10
-98.7735302569
 20
11.6598900571
 10
-98.8332397286
 20
11.07565869
 10
-98.7350001903
 20
10.5018884429
 10
-98.4805359612
 20
9.9486502409
 10
-98.0743134463
 20
9.4256546265
 10
-97.5234627406
 20
8.942081319
 10
-96.8376524813
 20
8.5064180894
 10
-96.028920141
 20
8.1263117821
 10
-95.1114607444
 20
7.8084340957
 10
-94.1013777145
 20
7.5583644801
 10
-93.0164002215
 20
7.3804922051
  0
LWPOLYLINE
  5
30A
330
2F4
100
AcDbEntity
  8
0
  6
Continuous
 62
     7
370
    25
100
AcDbPolyline
 90
       14
 70
   128
 43
0.0
 10
-47.8114455015
 20
3.2492229594
 10
-49.0233588166
 20
3.4437223889
 10
-50.1608880563
 20
3.7118659898
 10
-51.2074454829
 20
4.0497436246
 10
-52.1477699323
 20
4.4524282767
 10
-52.9681493568
 20
4.9140478969
 10
-53.656620777
 20
5.4278710318
 10
-54.2031447292
 20
5.9864049829
 10
-54.5997516636
 20
6.5815050677
 10
-54.840658158
 20
7.2044933869
 10
-54.9223512532
 20
7.8462853677
 10
-54.8436396799
 20
8.4975222381
 10
-54.6056712302
 20
9.148707498
 10
-54.2119160199
 20
9.7903453999
  0
LWPOLYLINE
  5
30C
330
2F4
100
AcDbEntity
  8
0
  6
Continuous
 62
     7
370
    25
100
AcDbPolyline
 90
       14
 70
   128
 43
0.0
 10
50.5544908132
 20
-3.4089811761
 10
50.0106906799
 20
-4.0317151946
 10
49.3247754541
 20
-4.6264644654
 10
48.5067473242
 20
-5.1845562049
 10
47.5685349826
 20
-5.6978521789
 10
46.5238196777
 20
-6.1588673762
 10
45.3878357113
 20
-6.560879157
 10
44.1771482876
 20
-6.8980252844
 10
42.9094119555
 20
-7.1653894087
 10
41.6031131653
 20
-7.3590727588
 10
40.277300695
 20
-7.4762509954
 10
38.9513078758
 20
-7.515215396
 10
37.6444706689
 20
-7.4753977718
 10
36.3758457036
 20
-7.3573787534
  0
LWPOLYLINE
  5
325
330
2F4
100
AcDbEntity
  8
0
  6
Continuous
 62
     8
370
    25
100
AcDbPolyline
 90
        8
 70
   128
 43
0.0
 10
79.1668723408
 20
-18.6659320907
 10
79.1722534945
 20
-18.8250528292
 10
79.188233151
 20
-18.9698384056
 10
79.2143248832
 20
-19.0958814887
 10
79.2497344483
 20
-19.1993452763
 10
79.2933839649
 20
-19.2770802892
 10
79.3439447241
 20
-19.3267202424
 10
79.3954187971
 20
-19.3462831763
  0
LWPOLYLINE
  5
326
330
2F4
100
AcDbEntity
  8
0
  6
Continuous
 62
     8
370
    25
100
AcDbPolyline
 90
        8
 70
   128
 43
0.0
 10
-93.3090079613
 20
3.0639863002
 10
-93.3036268076
 20
2.9048655616
 10
-93.2876471511
 20
2.7600799852
 10
-93.2615554189
 20
2.6340369022
 10
-93.2261458538
 20
2.5305731146
 10
-93.1824963373
 20
2.4528381016
 10
-93.1319355781
 20
2.4031981485
 10
-93.0804545707
 20
2.3836343407
  0
LWPOLYLINE
  5
32C
330
2F4
100
AcDbEntity
  8
0
  6
Continuous
 62
     8
370
    25
100
AcDbPolyline
 90
       12
 70
   128
 43
0.0
 10
-93.3090079613
 20
6.193740804
 10
-94.4080749459
 20
6.3688354968
 10
-95.4398955752
 20
6.6081770626
 10
-96.3894985111
 20
6.9082927432
 10
-97.2431053642
 20
7.2648279706
 10
-97.9883306126
 20
7.6726095495
 10
-98.6143613121
 20
8.1257207191
 10
-99.1121139873
 20
8.617587003
 10
-99.4743664298
 20
9.1410716022
 10
-99.6958624898
 20
9.6885789475
 10
-99.773388341
 20
10.2521649087
 10
-99.7734672726
 20
10.2772137264
  0
LWPOLYLINE
  5
32E
330
2F4
100
AcDbEntity
  8
0
  6
Continuous
 62
     8
370
    25
100
AcDbPolyline
 90
       12
 70
   128
 43
0.0
 10
-99.7734740562
 20
5.2221098812
 10
-99.773388341
 20
5.2140551323
 10
-99.6958624898
 20
4.9762664457
 10
-99.4743664298
 20
4.7344273001
 10
-99.1121139873
 20
4.4920466924
 10
-98.6143613121
 20
4.2526414762
 10
-97.9883306126
 20
4.0196853332
 10
-97.2431053642
 20
3.7965583713
 10
-96.3894985111
 20
3.5864980809
 10
-95.4398955752
 20
3.3925523594
 10
-94.4080749459
 20
3.2175352881
 10
-93.3090079613
 20
3.0639863002
  0
LINE
  5
32F
330
2F4
100
AcDbEntity
  8
0
  6
Continuous
 62
     7
370
    25
100
AcDbLine
 10
-93.0804545707
 20
2.3836343407
 30
0.0
 11
79.3954257314
 21
-19.3462840502
 31
0.0
  0
LINE
  5
330
330
2F4
100
AcDbEntity
  8
0
  6
Continuous
 62
     7
370
    25
100
AcDbLine
 10
90.2939354144
 20
-19.3628896031
 30
0.0
 11
97.5891308011
 21
-17.9054771846
 31
0.0
  0
LINE
  5
331
330
2F4
100
AcDbEntity
  8
0
  6
Continuous
 62
     7
370
    25
100
AcDbLine
 10
36.5617913543
 20
-7.2401686307
 30
0.0
 11
-47.6254998508
 21
3.3664330822
 31
0.0
  0
LINE
  5
332
330
2F4
100
AcDbEntity
  8
0
  6
Continuous
 62
     7
370
    25
100
AcDbLine
 10
51.6146903293
 20
-1.2574582978
 30
0.0
 11
49.8121782382
 21
-3.6882968499
 31
0.0
  0
LINE
  5
333
330
2F4
100
AcDbEntity
  8
0
  6
Continuous
 62
     7
370
    25
100
AcDbLine
 10
-99.7734740562
 20
10.2717128663
 30
0.0
 11
-99.7734740562
 21
5.2221098812
 31
0.0
  0
LINE
  5
334
330
2F4
100
AcDbEntity
  8
0
  6
Continuous
 62
     7
370
    25
100
AcDbLine
 10
-98.1948745065
 20
17.3205689231
 30
0.0
 11
-99.6857526274
 21
11.0150390758
 31
0.0
  0
LINE
  5
335
330
2F4
100
AcDbEntity
  8
0
  6
Continuous
 62
     7
370
    25
100
AcDbLine
 10
90.0370838793
 20
-12.1280113545
 30
0.0
 11
97.2946151261
 21
-6.6011150551
 31
0.0
  0
LINE
  5
336
330
2F4
100
AcDbEntity
  8
0
  6
Continuous
 62
     7
370
    25
100
AcDbLine
 10
-93.0164002215
 20
7.3804922051
 30
0.0
 11
79.4594800806
 21
-14.3494261858
 31
0.0
  0
LINE
  5
337
330
2F4
100
AcDbEntity
  8
0
  6
Continuous
 62
     7
370
    25
100
AcDbLine
 10
-97.2946151261
 20
17.9148235545
 30
0.0
 11
-98.7735302569
 21
11.6598900571
 31
0.0
  0
LINE
  5
338
330
2F4
100
AcDbEntity
  8
0
  6
Continuous
 62
     7
370
    25
100
AcDbLine
 10
-52.3832034166
 20
12.2565175377
 30
0.0
 11
-97.2946151261
 21
17.9148235545
 31
0.0
  0
LINE
  5
339
330
2F4
100
AcDbEntity
  8
0
  6
Continuous
 62
     7
370
    25
100
AcDbLine
 10
-54.2119160199
 20
9.7903453999
 30
0.0
 11
-52.3832034166
 21
12.2565175377
 31
0.0
  0
LINE
  5
33A
330
2F4
100
AcDbEntity
  8
0
  6
Continuous
 62
     7
370
    25
100
AcDbLine
 10
36.3758457036
 20
-7.3573787534
 30
0.0
 11
-47.8114455015
 21
3.2492229594
 31
0.0
  0
LINE
  5
33B
330
2F4
100
AcDbEntity
  8
0
  6
Continuous
 62
     7
370
    25
100
AcDbLine
 10
52.3832034166
 20
-0.9428090383
 30
0.0
 11
50.5544908132
 21
-3.4089811761
 31
0.0
  0
LINE
  5
33C
330
2F4
100
AcDbEntity
  8
0
  6
Continuous
 62
     7
370
    25
100
AcDbLine
 10
97.2946151261
 20
-6.6011150551
 30
0.0
 11
52.3832034166
 21
-0.9428090383
 31
0.0
  0
LINE
  5
33D
330
2F4
100
AcDbEntity
  8
0
  6
Continuous
 62
     7
370
    25
100
AcDbLine
 10
90.9197654505
 20
-13.1929141312
 30
0.0
 11
90.9197654505
 21
-18.5722230585
 31
0.0
  0
LINE
  5
33E
330
2F4
100
AcDbEntity
  8
0
  6
Continuous
 62
     7
370
    25
100
AcDbLine
 10
79.1668723408
 20
-18.6659320907
 30
0.0
 11
79.1668723408
 21
-15.5361775869
 31
0.0
  0
LINE
  5
33F
330
2F4
100
AcDbEntity
  8
0
  6
Continuous
 62
     7
370
    25
100
AcDbLine
 10
79.1668723408
 20
-15.5361775869
 30
0.0
 11
-93.3090079613
 21
6.193740804
 31
0.0
  0
LINE
  5
340
330
2F4
100
AcDbEntity
  8
0
  6
Continuous
 62
     7
370
    25
100
AcDbLine
 10
-93.3090079613
 20
3.0639863002
 30
0.0
 11
79.1668723408
 21
-18.6659320907
 31
0.0
  0
LINE
  5
341
330
2F4
100
AcDbEntity
  8
0
  6
Continuous
 62
     7
370
    25
100
AcDbLine
 10
-93.3090079613
 20
6.193740804
 30
0.0
 11
-93.3090079613
 21
3.0639863002
 31
0.0
  0
LINE
  5
342
330
2F4
100
AcDbEntity
  8
0
  6
Continuous
 62
     7
370
    25
100
AcDbLine
 10
98.218506406
 20
-7.6346350132
 30
0.0
 11
90.9197654505
 21
-13.1929141312
 31
0.0
  0
LINE
  5
343
330
2F4
100
AcDbEntity
  8
0
  6
Continuous
 62
     7
370
    25
100
AcDbLine
 10
98.218506406
 20
-17.1141023168
 30
0.0
 11
98.218506406
 21
-7.6346350132
 31
0.0
  0
LINE
  5
344
330
2F4
100
AcDbEntity
  8
0
  6
Continuous
 62
     7
370
    25
100
AcDbLine
 10
90.9197654505
 20
-18.5722230585
 30
0.0
 11
98.218506406
 21
-17.1141023168
 31
0.0
  0
LINE
  5
345
330
2F4
100
AcDbEntity
  8
0
  6
Continuous
 62
     7
370
    25
100
AcDbLine
 10
-51.4477890698
 20
11.1815294731
 30
0.0
 11
-53.2155560224
 21
8.7975476509
 31
0.0
  0
LINE
  5
346
330
2F4
100
AcDbEntity
  8
0
  6
Continuous
 62
     7
370
    25
100
AcDbLine
 10
-51.4477890698
 20
4.3896825349
 30
0.0
 11
-51.4477890698
 21
11.1815294731
 31
0.0
  0
LINE
  5
347
330
2F4
100
AcDbEntity
  8
0
  6
Continuous
 62
     8
370
    25
100
AcDbLine
 10
-53.2155560224
 20
8.7975476509
 30
0.0
 11
-53.2155560224
 21
5.5769155732
 31
0.0
  0
ARC
  5
348
330
2F4
100
AcDbEntity
  8
0
  6
Continuous
 62
     7
370
    25
100
AcDbCircle
 10
81.7752633746
 20
0.9177604475
 30
0.0
 40
15.44182113489082
100
AcDbArc
 50
261.3749118878
 51
302.3458710484
  0
ARC
  5
349
330
2F4
100
AcDbEntity
  8
0
  6
Continuous
 62
     7
370
    25
100
AcDbCircle
 10
81.758564417
 20
2.1104980316
 30
0.0
 40
17.83597567276463
100
AcDbArc
 50
261.6449428545
 51
300.9063336989
  0
ARC
  5
34A
330
2F4
100
AcDbEntity
  8
0
  6
Continuous
 62
     7
370
    25
100
AcDbCircle
 10
81.4118812051
 20
-15.4602626825
 30
0.0
 40
2.246292027598429
100
AcDbArc
 50
150.3618916355
 51
181.9367170324
  0
ARC
  5
34B
330
2F4
100
AcDbEntity
  8
0
  6
Continuous
 62
     7
370
    25
100
AcDbCircle
 10
89.6336610963
 20
-13.3606743024
 30
0.0
 40
1.296999570087257
100
AcDbArc
 50
7.4317334096
 51
71.8778954783
  0
ARC
  5
34C
330
2F4
100
AcDbEntity
  8
0
  6
Continuous
 62
     7
370
    25
100
AcDbCircle
 10
84.7426472956
 20
19.0908538234
 30
0.0
 40
38.16626977983303
100
AcDbArc
 50
261.5994982001
 51
279.31415229
  0
ARC
  5
34D
330
2F4
100
AcDbEntity
  8
0
  6
Continuous
 62
     7
370
    25
100
AcDbCircle
 10
-91.0639990971
 20
6.2696557084
 30
0.0
 40
2.24629202759822
100
AcDbArc
 50
150.3618916355
 51
181.9367170325
  0
ARC
  5
34E
330
2F4
100
AcDbEntity
  8
0
  6
Continuous
 62
     7
370
    25
100
AcDbCircle
 10
97.156130393
 20
-7.6546158891
 30
0.0
 40
1.06256389381645
100
AcDbArc
 50
1.0774762322
 51
82.5112953732
  0
ARC
  5
34F
330
2F4
100
AcDbEntity
  8
0
  6
Continuous
 62
     7
370
    25
100
AcDbCircle
 10
97.4384588108
 20
-17.1396919462
 30
0.0
 40
0.7804672190306686
100
AcDbArc
 50
281.1310415054
 51
1.8789265637
  0
ARC
  5
350
330
2F4
100
AcDbEntity
  8
0
  6
Continuous
 62
     7
370
    25
100
AcDbCircle
 10
52.2647137438
 20
-1.7492542755
 30
0.0
 40
0.8151035045042314
100
AcDbArc
 50
81.6414310195
 51
142.8895086686
  0
ARC
  5
351
330
2F4
100
AcDbEntity
  8
0
  6
Continuous
 62
     7
370
    25
100
AcDbCircle
 10
-54.3525637455
 20
8.6528266292
 30
0.0
 40
1.146180935350248
100
AcDbArc
 50
7.2537374998
 51
82.9514765739
  0
ARC
  5
352
330
2F4
100
AcDbEntity
  8
0
  6
Continuous
 62
     7
370
    25
100
AcDbCircle
 10
-52.5482085621
 20
11.1684609457
 30
0.0
 40
1.10049709012945
100
AcDbArc
 50
0.6804098557
 51
81.3767289276
  0
ARC
  5
353
330
2F4
100
AcDbEntity
  8
0
  6
Continuous
 62
     7
370
    25
100
AcDbCircle
 10
-97.4238780028
 20
17.131602663
 30
0.0
 40
0.7938160089669603
100
AcDbArc
 50
80.6283766487
 51
166.2286436218
  0
ARC
  5
354
330
2F4
100
AcDbEntity
  8
0
  6
Continuous
 62
     8
370
    25
100
AcDbCircle
 10
90.0925225217
 20
-18.5603192458
 30
0.0
 40
0.8273285707205317
100
AcDbArc
 50
283.9058369619
 51
359.1755853886
  0
ARC
  5
355
330
2F4
100
AcDbEntity
  8
0
  6
Continuous
 62
     8
370
    25
100
AcDbCircle
 10
50.422293491
 20
-4.1840923378
 30
0.0
 40
0.7863036596008901
100
AcDbArc
 50
80.3211781046
 51
140.670302524
  0
ARC
  5
356
330
2F4
100
AcDbEntity
  8
0
  6
Continuous
 62
     8
370
    25
100
AcDbCircle
 10
36.5636718931
 20
-7.4493908627
 30
0.0
 40
0.2091528285601453
100
AcDbArc
 50
90.3586194341
 51
153.9007359283
  0
ARC
  5
357
330
2F4
100
AcDbEntity
  8
0
  6
Continuous
 62
     8
370
    25
100
AcDbCircle
 10
-47.6233464547
 20
3.1569169328
 30
0.0
 40
0.2095272152940598
100
AcDbArc
 50
90.588862313
 51
153.8613833408
  0
ARC
  5
358
330
2F4
100
AcDbEntity
  8
0
  6
Continuous
 62
     8
370
    25
100
AcDbCircle
 10
-50.7307791861
 20
6.8914813652
 30
0.0
 40
3.131645671438075
100
AcDbArc
 50
142.5082741221
 51
178.5380461493
  0
ARC
  5
359
330
2F4
100
AcDbEntity
  8
0
  6
Continuous
 62
     8
370
    25
100
AcDbCircle
 10
-98.8175076852
 20
10.7544477926
 30
0.0
 40
0.9065096296147561
100
AcDbArc
 50
87.2193230337
 51
163.2920930355
  0
VIEWPORT
  5
368
330
2F4
100
AcDbEntity
  8
0
100
AcDbViewport
 10
0.0
 20
0.0
 30
0.0
 40
205.6
 41
156.0
 68
     1
 69
     1
 12
0.0
 22
0.0
 13
0.0
 23
0.0
 14
10.0
 24
10.0
 15
10.0
 25
10.0
 16
0.0
 26
0.0
 36
1.0
 17
0.0
 27
0.0
 37
0.0
 42
50.0
 43
0.0
 44
0.0
 45
162.5252918288
 50
0.0
 51
0.0
 72
   100
 90
   557152
  1

281
     0
 71
     1
 74
     0
110
0.0
120
0.0
130
0.0
111
1.0
121
0.0
131
0.0
112
0.0
122
1.0
132
0.0
 79
     0
146
0.0
  0
ENDBLK
  5
2F7
330
2F4
100
AcDbEntity
  8
0
100
AcDbBlockEnd
  0
ENDSEC
  0
SECTION
  2
ENTITIES
  0
SPLINE
  5
73
330
1F
100
AcDbEntity
  8
0
  6
Continuous
 62
     7
370
    25
100
AcDbSpline
210
0.0
220
0.0
230
1.0
 70
     8
 71
     3
 72
    16
 73
    12
 74
     0
 42
0.000000001
 43
0.00000001
 40
0.0
 40
0.0
 40
0.0
 40
0.0
 40
0.1344240082804224
 40
0.2709627181401348
 40
0.406574000671125
 40
0.5405567712190266
 40
0.6717553145781149
 40
0.7850538920860632
 40
0.8893646038081918
 40
0.9837150887336379
 40
1.0
 40
1.0
 40
1.0
 40
1.0
 10
51.07841773483043
 20
-3.512539153019183
 30
0.0
 10
51.38256283332117
 20
-3.551167706433664
 30
0.0
 10
51.99563771220834
 20
-3.629032501308506
 30
0.0
 10
52.80895619957411
 20
-3.765510988819889
 30
0.0
 10
53.52925269555843
 20
-3.912846848200316
 30
0.0
 10
54.13138710028446
 20
-4.067329618151267
 30
0.0
 10
54.58728420459781
 20
-4.214825854284895
 30
0.0
 10
54.90067174766806
 20
-4.347226638840407
 30
0.0
 10
55.07221283580483
 20
-4.438204135655326
 30
0.0
 10
55.13725321221114
 20
-4.495471030477606
 30
0.0
 10
55.12540380080387
 20
-4.481786525828918
 30
0.0
 10
55.12365963374732
 20
-4.479772243315375
 30
0.0
  0
SPLINE
  5
75
330
1F
100
AcDbEntity
  8
0
  6
Continuous
 62
     7
370
    25
100
AcDbSpline
210
0.0
220
0.0
230
1.0
 70
     8
 71
     3
 72
    10
 73
     6
 74
     0
 42
0.000000001
 43
0.00000001
 40
0.0
 40
0.0
 40
0.0
 40
0.0
 40
0.3201345735803873
 40
0.6861687090605916
 40
1.0
 40
1.0
 40
1.0
 40
1.0
 10
-48.14275012218019
 20
-3.26768411140049
 30
0.0
 10
-47.815490586016
 20
-3.25153261679245
 30
0.0
 10
-47.11405040432578
 20
-3.216913893545382
 30
0.0
 10
-46.0572544951355
 20
-3.190070652884178
 30
0.0
 10
-45.33390423583332
 20
-3.186466623452687
 30
0.0
 10
-44.99999999999998
 20
-3.18480297478765
 30
0.0
  0
SPLINE
  5
76
330
1F
100
AcDbEntity
  8
0
  6
Continuous
 62
     7
370
    25
100
AcDbSpline
210
0.0
220
0.0
230
1.0
 70
     8
 71
     3
 72
    20
 73
    16
 74
     0
 42
0.000000001
 43
0.00000001
 40
0.0
 40
0.0
 40
0.0
 40
0.0
 40
0.0081803813572589
 40
0.0740395010396395
 40
0.1461689183398714
 40
0.2258342128185635
 40
0.3120991469455373
 40
0.4032581612013795
 40
0.4976686769846015
 40
0.5940958948762296
 40
0.6917215131571297
 40
0.790035816893845
 40
0.8887310515463808
 40
0.987626200594203
 40
0.9999999999999999
 40
0.9999999999999999
 40
0.9999999999999999
 40
0.9999999999999999
 10
-55.12506076276186
 20
-4.481157117624233
 30
0.0
 10
-55.12641657159825
 20
-4.482777388658362
 30
0.0
 10
-55.13868780998767
 20
-4.497442237847746
 30
0.0
 10
-55.08063089400341
 20
-4.443763962862015
 30
0.0
 10
-54.92528367744706
 20
-4.359642173820486
 30
0.0
 10
-54.64107373310316
 20
-4.235529991395761
 30
0.0
 10
-54.23017420645967
 20
-4.097227608051661
 30
0.0
 10
-53.6883898917208
 20
-3.950902747300336
 30
0.0
 10
-53.02355450155
 20
-3.806195614208203
 30
0.0
 10
-52.24663730513299
 20
-3.668996720775171
 30
0.0
 10
-51.37058761151924
 20
-3.544146645406728
 30
0.0
 10
-50.4104810888262
 20
-3.434179891120618
 30
0.0
 10
-49.37604468550172
 20
-3.344113336319068
 30
0.0
 10
-48.61312653351139
 20
-3.288626471075494
 30
0.0
 10
-48.18982399800223
 20
-3.269779960628924
 30
0.0
 10
-48.14275012218019
 20
-3.26768411140049
 30
0.0
  0
SPLINE
  5
77
330
1F
100
AcDbEntity
  8
0
  6
Continuous
 62
     7
370
    25
100
AcDbSpline
210
0.0
220
0.0
230
1.0
 70
     8
 71
     3
 72
    10
 73
     6
 74
     0
 42
0.000000001
 43
0.00000001
 40
0.0
 40
0.0
 40
0.0
 40
0.0
 40
0.3201345735803586
 40
0.6861687090605646
 40
1.0
 40
1.0
 40
1.0
 40
1.0
 10
48.14275012218008
 20
3.267684111400485
 30
0.0
 10
47.81549058601593
 20
3.251532616792448
 30
0.0
 10
47.11405040432575
 20
3.216913893545383
 30
0.0
 10
46.05725449513545
 20
3.190070652884179
 30
0.0
 10
45.33390423583329
 20
3.18646662345269
 30
0.0
 10
44.99999999999991
 20
3.184802974787653
 30
0.0
  0
SPLINE
  5
78
330
1F
100
AcDbEntity
  8
0
  6
Continuous
 62
     7
370
    25
100
AcDbSpline
210
0.0
220
0.0
230
1.0
 70
     8
 71
     3
 72
    20
 73
    16
 74
     0
 42
0.000000001
 43
0.00000001
 40
0.0
 40
0.0
 40
0.0
 40
0.0
 40
0.0081803813572594
 40
0.0740395010396378
 40
0.1461689183398688
 40
0.2258342128185596
 40
0.3120991469455376
 40
0.4032581612013723
 40
0.4976686769845919
 40
0.5940958948762247
 40
0.6917215131571274
 40
0.790035816893843
 40
0.888731051546371
 40
0.9876262005941959
 40
1.0
 40
1.0
 40
1.0
 40
1.0
 10
55.12506076276191
 20
4.481157117624233
 30
0.0
 10
55.12641657159831
 20
4.482777388658362
 30
0.0
 10
55.1386878099878
 20
4.497442237847753
 30
0.0
 10
55.08063089400346
 20
4.443763962862015
 30
0.0
 10
54.92528367744711
 20
4.35964217382049
 30
0.0
 10
54.64107373310321
 20
4.235529991395762
 30
0.0
 10
54.23017420645973
 20
4.097227608051661
 30
0.0
 10
53.68838989172087
 20
3.950902747300339
 30
0.0
 10
53.02355450155005
 20
3.806195614208204
 30
0.0
 10
52.24663730513302
 20
3.668996720775169
 30
0.0
 10
51.37058761151923
 20
3.544146645406722
 30
0.0
 10
50.41048108882617
 20
3.434179891120615
 30
0.0
 10
49.37604468550172
 20
3.344113336319065
 30
0.0
 10
48.61312653351135
 20
3.288626471075491
 30
0.0
 10
48.18982399800215
 20
3.269779960628919
 30
0.0
 10
48.14275012218008
 20
3.267684111400485
 30
0.0
  0
SPLINE
  5
7B
330
1F
100
AcDbEntity
  8
0
  6
Continuous
 62
     7
370
    25
100
AcDbSpline
210
0.0
220
0.0
230
1.0
 70
     8
 71
     3
 72
    16
 73
    12
 74
     0
 42
0.000000001
 43
0.00000001
 40
0.0
 40
0.0
 40
0.0
 40
0.0
 40
0.1344240082804036
 40
0.270962718140121
 40
0.4065740006711166
 40
0.5405567712190246
 40
0.6717553145781107
 40
0.7850538920860621
 40
0.8893646038081952
 40
0.9837150887336361
 40
1.0
 40
1.0
 40
1.0
 40
1.0
 10
-51.07841773483042
 20
3.512539153019192
 30
0.0
 10
-51.3825628333211
 20
3.551167706433666
 30
0.0
 10
-51.99563771220827
 20
3.629032501308504
 30
0.0
 10
-52.80895619957401
 20
3.765510988819885
 30
0.0
 10
-53.52925269555836
 20
3.912846848200312
 30
0.0
 10
-54.1313871002844
 20
4.067329618151267
 30
0.0
 10
-54.58728420459777
 20
4.214825854284896
 30
0.0
 10
-54.90067174766801
 20
4.347226638840413
 30
0.0
 10
-55.07221283580473
 20
4.438204135655323
 30
0.0
 10
-55.13725321221112
 20
4.495471030477613
 30
0.0
 10
-55.12540380080381
 20
4.481786525828917
 30
0.0
 10
-55.12365963374726
 20
4.479772243315375
 30
0.0
  0
LWPOLYLINE
  5
7D
330
1F
100
AcDbEntity
  8
0
  6
Continuous
 62
     7
370
    25
100
AcDbPolyline
 90
       12
 70
   128
 43
0.0
 10
-92.192235936
 20
1.6598029748
 10
-93.3946085927
 20
1.6712293103
 10
-94.5795352643
 20
1.705342525
 10
-95.7298231001
 20
1.7616476485
 10
-96.8287818465
 20
1.8393277144
 10
-97.860466016
 20
1.9372556133
 10
-98.8099062507
 20
2.0540104475
 10
-99.6633265216
 20
2.1878981472
 10
-100.4083440144
 20
2.3369760512
 10
-101.0341487991
 20
2.4990810937
 10
-101.5316606782
 20
2.6718611904
 10
-101.8936609374
 20
2.8528093654
  0
LWPOLYLINE
  5
7F
330
1F
100
AcDbEntity
  8
0
  6
Continuous
 62
     7
370
    25
100
AcDbPolyline
 90
       12
 70
   128
 43
0.0
 10
-101.8936609374
 20
-2.8528093654
 10
-101.5316606782
 20
-2.6718611904
 10
-101.0341487991
 20
-2.4990810937
 10
-100.4083440144
 20
-2.3369760512
 10
-99.6633265216
 20
-2.1878981472
 10
-98.8099062507
 20
-2.0540104475
 10
-97.860466016
 20
-1.9372556133
 10
-96.8287818465
 20
-1.8393277144
 10
-95.7298231001
 20
-1.7616476485
 10
-94.5795352643
 20
-1.705342525
 10
-93.3946085927
 20
-1.6712293103
 10
-92.192235936
 20
-1.6598029748
  0
LWPOLYLINE
  5
84
330
1F
100
AcDbEntity
  8
0
  6
Continuous
 62
     7
370
    25
100
AcDbPolyline
 90
       12
 70
   128
 43
0.0
 10
101.8936609374
 20
2.8528093654
 10
101.5316606782
 20
2.6718611904
 10
101.0341487991
 20
2.4990810937
 10
100.4083440144
 20
2.3369760512
 10
99.6633265216
 20
2.1878981472
 10
98.8099062507
 20
2.0540104475
 10
97.860466016
 20
1.9372556133
 10
96.8287818465
 20
1.8393277144
 10
95.7298231001
 20
1.7616476485
 10
94.5795352643
 20
1.705342525
 10
93.3946085927
 20
1.6712293103
 10
92.192235936
 20
1.6598029748
  0
LWPOLYLINE
  5
89
330
1F
100
AcDbEntity
  8
0
  6
Continuous
 62
     7
370
    25
100
AcDbPolyline
 90
       12
 70
   128
 43
0.0
 10
92.192235936
 20
-1.6598029748
 10
93.3946085927
 20
-1.6712293103
 10
94.5795352643
 20
-1.705342525
 10
95.7298231001
 20
-1.7616476485
 10
96.8287818465
 20
-1.8393277144
 10
97.860466016
 20
-1.9372556133
 10
98.8099062507
 20
-2.0540104475
 10
99.6633265216
 20
-2.1878981472
 10
100.4083440144
 20
-2.3369760512
 10
101.0341487991
 20
-2.4990810937
 10
101.5316606782
 20
-2.6718611904
 10
101.8936609374
 20
-2.8528093654
  0
LWPOLYLINE
  5
9B
330
1F
100
AcDbEntity
  8
0
  6
Continuous
 62
     7
370
    25
100
AcDbPolyline
 90
       14
 70
   128
 43
0.0
 10
-56.0
 20
-5.0948334419
 10
-55.9197976151
 20
-4.8628003325
 10
-55.6803599917
 20
-4.6341507882
 10
-55.2851786695
 20
-4.4122190344
 10
-54.7400162822
 20
-4.2002413358
 10
-54.0528225248
 20
-4.0013088045
 10
-53.2336182299
 20
-3.8183223248
 10
-52.2943492406
 20
-3.6539502517
 10
-51.248712214
 20
-3.5105895001
 10
-50.1119548925
 20
-3.3903305926
 10
-48.9006537575
 20
-3.2949271748
 10
-47.6324723072
 20
-3.2257704434
 10
-46.3259034828
 20
-3.1838688593
 10
-45.0
 20
-3.1698334419
  0
LWPOLYLINE
  5
A4
330
1F
100
AcDbEntity
  8
0
  6
Continuous
 62
     7
370
    25
100
AcDbPolyline
 90
       14
 70
   128
 43
0.0
 10
56.0
 20
5.0948334419
 10
55.9197976151
 20
4.8628003325
 10
55.6803599917
 20
4.6341507882
 10
55.2851786695
 20
4.4122190344
 10
54.7400162822
 20
4.2002413358
 10
54.0528225248
 20
4.0013088045
 10
53.2336182299
 20
3.8183223248
 10
52.2943492406
 20
3.6539502517
 10
51.248712214
 20
3.5105895001
 10
50.1119548925
 20
3.3903305926
 10
48.9006537575
 20
3.2949271748
 10
47.6324723072
 20
3.2257704434
 10
46.3259034828
 20
3.1838688593
 10
45.0
 20
3.1698334419
  0
LWPOLYLINE
  5
BA
330
1F
100
AcDbEntity
  8
0
  6
Continuous
 62
     8
370
    25
100
AcDbPolyline
 90
       10
 70
   128
 43
0.0
 10
51.1921989368
 20
-3.5038084296
 10
51.248712214
 20
-3.5105895001
 10
52.2943492406
 20
-3.6539502517
 10
53.2336182299
 20
-3.8183223248
 10
54.0528225248
 20
-4.0013088045
 10
54.7400162822
 20
-4.2002413358
 10
55.2851786695
 20
-4.4122190344
 10
55.6803599917
 20
-4.6341507882
 10
55.9197976151
 20
-4.8628003325
 10
56.0
 20
-5.0948334419
  0
LWPOLYLINE
  5
BC
330
1F
100
AcDbEntity
  8
0
  6
Continuous
 62
     8
370
    25
100
AcDbPolyline
 90
       10
 70
   128
 43
0.0
 10
-51.1921989368
 20
3.5038084296
 10
-51.248712214
 20
3.5105895001
 10
-52.2943492406
 20
3.6539502517
 10
-53.2336182299
 20
3.8183223248
 10
-54.0528225248
 20
4.0013088045
 10
-54.7400162822
 20
4.2002413358
 10
-55.2851786695
 20
4.4122190344
 10
-55.6803599917
 20
4.6341507882
 10
-55.9197976151
 20
4.8628003325
 10
-56.0
 20
5.0948334419
  0
LINE
  5
C5
330
1F
100
AcDbEntity
  8
0
  6
Continuous
 62
     7
370
    25
100
AcDbLine
 10
45.0
 20
-3.1848029748
 30
0.0
 11
45.3229964737
 21
-3.1864065301
 31
0.0
  0
LINE
  5
C6
330
1F
100
AcDbEntity
  8
0
  6
Continuous
 62
     7
370
    25
100
AcDbLine
 10
-45.0
 20
-3.1848029748
 30
0.0
 11
45.0
 21
-3.1848029748
 31
0.0
  0
LINE
  5
C7
330
1F
100
AcDbEntity
  8
0
  6
Continuous
 62
     7
370
    25
100
AcDbLine
 10
45.0
 20
3.1848029748
 30
0.0
 11
-45.0
 21
3.1848029748
 31
0.0
  0
LINE
  5
C8
330
1F
100
AcDbEntity
  8
0
  6
Continuous
 62
     7
370
    25
100
AcDbLine
 10
-45.0
 20
3.1848029748
 30
0.0
 11
-45.3229964737
 21
3.1864065301
 31
0.0
  0
LINE
  5
C9
330
1F
100
AcDbEntity
  8
0
  6
Continuous
 62
     7
370
    25
100
AcDbLine
 10
-92.192235936
 20
2.6448334419
 30
0.0
 11
-92.192235936
 21
-2.6448334419
 31
0.0
  0
LINE
  5
CA
330
1F
100
AcDbEntity
  8
0
  6
Continuous
 62
     7
370
    25
100
AcDbLine
 10
-101.8936609374
 20
-2.8528093654
 30
0.0
 11
-101.8936609374
 21
2.8528093654
 31
0.0
  0
LINE
  5
CB
330
1F
100
AcDbEntity
  8
0
  6
Continuous
 62
     7
370
    25
100
AcDbLine
 10
92.192235936
 20
1.6598029748
 30
0.0
 11
-92.192235936
 21
1.6598029748
 31
0.0
  0
LINE
  5
CC
330
1F
100
AcDbEntity
  8
0
  6
Continuous
 62
     7
370
    25
100
AcDbLine
 10
92.192235936
 20
-2.6448334419
 30
0.0
 11
92.192235936
 21
2.6448334419
 31
0.0
  0
LINE
  5
CD
330
1F
100
AcDbEntity
  8
0
  6
Continuous
 62
     7
370
    25
100
AcDbLine
 10
-92.192235936
 20
-1.6598029748
 30
0.0
 11
92.192235936
 21
-1.6598029748
 31
0.0
  0
LINE
  5
CE
330
1F
100
AcDbEntity
  8
0
  6
Continuous
 62
     7
370
    25
100
AcDbLine
 10
101.8936609374
 20
2.8528093654
 30
0.0
 11
101.8936609374
 21
-2.8528093654
 31
0.0
  0
LINE
  5
CF
330
1F
100
AcDbEntity
  8
0
  6
Continuous
 62
     7
370
    25
100
AcDbLine
 10
92.192235936
 20
-2.6448334419
 30
0.0
 11
-92.192235936
 21
-2.6448334419
 31
0.0
  0
LINE
  5
D0
330
1F
100
AcDbEntity
  8
0
  6
Continuous
 62
     7
370
    25
100
AcDbLine
 10
-92.192235936
 20
2.6448334419
 30
0.0
 11
92.192235936
 21
2.6448334419
 31
0.0
  0
LINE
  5
D1
330
1F
100
AcDbEntity
  8
0
  6
Continuous
 62
     7
370
    25
100
AcDbLine
 10
-100.9235184373
 20
-3.8378398325
 30
0.0
 11
-104.0123186765
 21
-6.0
 31
0.0
  0
LINE
  5
D2
330
1F
100
AcDbEntity
  8
0
  6
Continuous
 62
     7
370
    25
100
AcDbLine
 10
104.0123186765
 20
-6.0
 30
0.0
 11
100.9235184373
 21
-3.8378398325
 31
0.0
  0
LINE
  5
D3
330
1F
100
AcDbEntity
  8
0
  6
Continuous
 62
     7
370
    25
100
AcDbLine
 10
56.0
 20
-6.0
 30
0.0
 11
104.0123186765
 21
-6.0
 31
0.0
  0
LINE
  5
D4
330
1F
100
AcDbEntity
  8
0
  6
Continuous
 62
     7
370
    25
100
AcDbLine
 10
56.0
 20
-5.0948334419
 30
0.0
 11
56.0
 21
-6.0
 31
0.0
  0
LINE
  5
D5
330
1F
100
AcDbEntity
  8
0
  6
Continuous
 62
     7
370
    25
100
AcDbLine
 10
-45.0
 20
-3.1698334419
 30
0.0
 11
45.0
 21
-3.1698334419
 31
0.0
  0
LINE
  5
D6
330
1F
100
AcDbEntity
  8
0
  6
Continuous
 62
     7
370
    25
100
AcDbLine
 10
-56.0
 20
-6.0
 30
0.0
 11
-56.0
 21
-5.0948334419
 31
0.0
  0
LINE
  5
D7
330
1F
100
AcDbEntity
  8
0
  6
Continuous
 62
     7
370
    25
100
AcDbLine
 10
-104.0123186765
 20
-6.0
 30
0.0
 11
-56.0
 21
-6.0
 31
0.0
  0
LINE
  5
D8
330
1F
100
AcDbEntity
  8
0
  6
Continuous
 62
     7
370
    25
100
AcDbLine
 10
100.9235184373
 20
3.8378398325
 30
0.0
 11
104.0123186765
 21
6.0
 31
0.0
  0
LINE
  5
D9
330
1F
100
AcDbEntity
  8
0
  6
Continuous
 62
     7
370
    25
100
AcDbLine
 10
-104.0123186765
 20
6.0
 30
0.0
 11
-100.9235184373
 21
3.8378398325
 31
0.0
  0
LINE
  5
DA
330
1F
100
AcDbEntity
  8
0
  6
Continuous
 62
     7
370
    25
100
AcDbLine
 10
-56.0
 20
6.0
 30
0.0
 11
-104.0123186765
 21
6.0
 31
0.0
  0
LINE
  5
DB
330
1F
100
AcDbEntity
  8
0
  6
Continuous
 62
     7
370
    25
100
AcDbLine
 10
-56.0
 20
5.0948334419
 30
0.0
 11
-56.0
 21
6.0
 31
0.0
  0
LINE
  5
DC
330
1F
100
AcDbEntity
  8
0
  6
Continuous
 62
     7
370
    25
100
AcDbLine
 10
45.0
 20
3.1698334419
 30
0.0
 11
-45.0
 21
3.1698334419
 31
0.0
  0
LINE
  5
DD
330
1F
100
AcDbEntity
  8
0
  6
Continuous
 62
     7
370
    25
100
AcDbLine
 10
56.0
 20
6.0
 30
0.0
 11
56.0
 21
5.0948334419
 31
0.0
  0
LINE
  5
DE
330
1F
100
AcDbEntity
  8
0
  6
Continuous
 62
     7
370
    25
100
AcDbLine
 10
104.0123186765
 20
6.0
 30
0.0
 11
56.0
 21
6.0
 31
0.0
  0
LINE
  5
DF
330
1F
100
AcDbEntity
  8
0
  6
Continuous
 62
     7
370
    25
100
AcDbLine
 10
101.8936609374
 20
-2.8528093654
 30
0.0
 11
105.0
 21
-5.0272467092
 31
0.0
  0
LINE
  5
E0
330
1F
100
AcDbEntity
  8
0
  6
Continuous
 62
     7
370
    25
100
AcDbLine
 10
105.0
 20
5.0272467092
 30
0.0
 11
101.8936609374
 21
2.8528093654
 31
0.0
  0
LINE
  5
E1
330
1F
100
AcDbEntity
  8
0
  6
Continuous
 62
     7
370
    25
100
AcDbLine
 10
-105.0
 20
-5.0272467092
 30
0.0
 11
-101.8936609374
 21
-2.8528093654
 31
0.0
  0
LINE
  5
E2
330
1F
100
AcDbEntity
  8
0
  6
Continuous
 62
     7
370
    25
100
AcDbLine
 10
-101.8936609374
 20
2.8528093654
 30
0.0
 11
-105.0
 21
5.0272467092
 31
0.0
  0
LINE
  5
E3
330
1F
100
AcDbEntity
  8
0
  6
Continuous
 62
     7
370
    25
100
AcDbLine
 10
105.0
 20
-5.0272467092
 30
0.0
 11
105.0
 21
5.0272467092
 31
0.0
  0
LINE
  5
E4
330
1F
100
AcDbEntity
  8
0
  6
Continuous
 62
     7
370
    25
100
AcDbLine
 10
-105.0
 20
5.0272467092
 30
0.0
 11
-105.0
 21
-5.0272467092
 31
0.0
  0
LINE
  5
E5
330
1F
100
AcDbEntity
  8
0
  6
Continuous
 62
     7
370
    25
100
AcDbLine
 10
55.0
 20
-4.9848029748
 30
0.0
 11
55.0
 21
-4.4053596658
 31
0.0
  0
LINE
  5
E6
330
1F
100
AcDbEntity
  8
0
  6
Continuous
 62
     7
370
    25
100
AcDbLine
 10
55.0
 20
4.4051719673
 30
0.0
 11
55.0
 21
4.9848029748
 31
0.0
  0
LINE
  5
E7
330
1F
100
AcDbEntity
  8
0
  6
Continuous
 62
     7
370
    25
100
AcDbLine
 10
-55.0
 20
-4.4051719673
 30
0.0
 11
-55.0
 21
-4.9848029748
 31
0.0
  0
LINE
  5
E8
330
1F
100
AcDbEntity
  8
0
  6
Continuous
 62
     7
370
    25
100
AcDbLine
 10
-55.0
 20
4.9848029748
 30
0.0
 11
-55.0
 21
4.4053596658
 31
0.0
  0
LINE
  5
E9
330
1F
100
AcDbEntity
  8
0
  6
Continuous
 62
     8
370
    25
100
AcDbLine
 10
45.0
 20
-3.1698334419
 30
0.0
 11
45.3424009983
 21
-3.1707662465
 31
0.0
  0
LINE
  5
EA
330
1F
100
AcDbEntity
  8
0
  6
Continuous
 62
     8
370
    25
100
AcDbLine
 10
-45.0
 20
3.1698334419
 30
0.0
 11
-45.3424009983
 21
3.1707662465
 31
0.0
  0
LINE
  5
EB
330
1F
100
AcDbEntity
  8
0
  6
Continuous
 62
     8
370
    25
100
AcDbLine
 10
45.0
 20
-3.1848025288
 30
0.0
 11
45.0
 21
-3.1698334419
 31
0.0
  0
LINE
  5
EC
330
1F
100
AcDbEntity
  8
0
  6
Continuous
 62
     8
370
    25
100
AcDbLine
 10
-45.0
 20
-3.1848014422
 30
0.0
 11
-45.0
 21
-3.1698334419
 31
0.0
  0
LINE
  5
ED
330
1F
100
AcDbEntity
  8
0
  6
Continuous
 62
     8
370
    25
100
AcDbLine
 10
45.0
 20
3.1848014422
 30
0.0
 11
45.0
 21
3.1698334419
 31
0.0
  0
LINE
  5
EE
330
1F
100
AcDbEntity
  8
0
  6
Continuous
 62
     8
370
    25
100
AcDbLine
 10
-45.0
 20
3.1848029748
 30
0.0
 11
-45.0
 21
3.1698334419
 31
0.0
  0
ARC
  5
EF
330
1F
100
AcDbEntity
  8
0
  6
Continuous
 62
     7
370
    25
100
AcDbCircle
 10
93.6909948103
 20
24.2232526799
 30
0.0
 40
21.63040579770708
100
AcDbArc
 50
266.0268235167
 51
289.5341337111
  0
ARC
  5
F0
330
1F
100
AcDbEntity
  8
0
  6
Continuous
 62
     7
370
    25
100
AcDbCircle
 10
100.8661794313
 20
2.8111124507
 30
0.0
 40
1.028327223304314
100
AcDbArc
 50
2.3238832219
 51
86.8035584897
  0
ARC
  5
F1
330
1F
100
AcDbEntity
  8
0
  6
Continuous
 62
     7
370
    25
100
AcDbCircle
 10
100.8661794313
 20
-2.8111124507
 30
0.0
 40
1.028327223304313
100
AcDbArc
 50
273.1964415103
 51
357.6761167781
  0
ARC
  5
F2
330
1F
100
AcDbEntity
  8
0
  6
Continuous
 62
     7
370
    25
100
AcDbCircle
 10
93.6909948103
 20
-24.2232526799
 30
0.0
 40
21.63040579770698
100
AcDbArc
 50
70.4658662889
 51
93.9731764833
  0
ARC
  5
F3
330
1F
100
AcDbEntity
  8
0
  6
Continuous
 62
     7
370
    25
100
AcDbCircle
 10
-100.8661794313
 20
2.8111124507
 30
0.0
 40
1.028327223304284
100
AcDbArc
 50
93.1964415103
 51
177.6761167781
  0
ARC
  5
F4
330
1F
100
AcDbEntity
  8
0
  6
Continuous
 62
     7
370
    25
100
AcDbCircle
 10
-93.6909948103
 20
24.2232526799
 30
0.0
 40
21.63040579770683
100
AcDbArc
 50
250.4658662889
 51
273.9731764833
  0
ARC
  5
F5
330
1F
100
AcDbEntity
  8
0
  6
Continuous
 62
     7
370
    25
100
AcDbCircle
 10
-93.6909948103
 20
-24.2232526799
 30
0.0
 40
21.63040579770637
100
AcDbArc
 50
86.0268235167
 51
109.5341337111
  0
ARC
  5
F6
330
1F
100
AcDbEntity
  8
0
  6
Continuous
 62
     7
370
    25
100
AcDbCircle
 10
-100.8661794313
 20
-2.8111124507
 30
0.0
 40
1.0283272233043
100
AcDbArc
 50
182.3238832219
 51
266.8035584897
  0
ARC
  5
F7
330
1F
100
AcDbEntity
  8
0
  6
Continuous
 62
     7
370
    25
100
AcDbCircle
 10
45.2726612814
 20
-55.9373245189
 30
0.0
 40
52.76660435864964
100
AcDbArc
 50
83.5588050049
 51
89.9242742136
  0
ARC
  5
F8
330
1F
100
AcDbEntity
  8
0
  6
Continuous
 62
     7
370
    25
100
AcDbCircle
 10
-45.2726612814
 20
55.9373245189
 30
0.0
 40
52.76660435864985
100
AcDbArc
 50
263.5588050049
 51
269.9242742136
  0
ARC
  5
F9
330
1F
100
AcDbEntity
  8
0
  6
Continuous
 62
     7
370
    25
100
AcDbCircle
 10
104.0264943667
 20
-5.0265973651
 30
0.0
 40
0.9735058499109398
100
AcDbArc
 50
269.1656589211
 51
359.9617827904
  0
ARC
  5
FA
330
1F
100
AcDbEntity
  8
0
  6
Continuous
 62
     7
370
    25
100
AcDbCircle
 10
104.0264943667
 20
5.0265973651
 30
0.0
 40
0.9735058499109256
100
AcDbArc
 50
0.0382172096
 51
90.8343410789
  0
ARC
  5
FB
330
1F
100
AcDbEntity
  8
0
  6
Continuous
 62
     7
370
    25
100
AcDbCircle
 10
-104.0264943667
 20
-5.0265973651
 30
0.0
 40
0.973505849910954
100
AcDbArc
 50
180.0382172096
 51
270.8343410789
  0
ARC
  5
FC
330
1F
100
AcDbEntity
  8
0
  6
Continuous
 62
     7
370
    25
100
AcDbCircle
 10
-104.0264943667
 20
5.0265973651
 30
0.0
 40
0.9735058499109321
100
AcDbArc
 50
89.1656589211
 51
179.9617827904
  0
ARC
  5
FD
330
1F
100
AcDbEntity
  8
0
  6
Continuous
 62
     7
370
    25
100
AcDbCircle
 10
56.00765625
 20
-4.9923446143
 30
0.0
 40
1.007684471692718
100
AcDbArc
 50
179.5711870522
 51
269.5646702466
  0
ARC
  5
FE
330
1F
100
AcDbEntity
  8
0
  6
Continuous
 62
     7
370
    25
100
AcDbCircle
 10
56.0073416883
 20
4.9926544672
 30
0.0
 40
1.007372286147945
100
AcDbArc
 50
90.4175730096
 51
180.4465696916
  0
ARC
  5
FF
330
1F
100
AcDbEntity
  8
0
  6
Continuous
 62
     7
370
    25
100
AcDbCircle
 10
-56.0073416883
 20
-4.9926544672
 30
0.0
 40
1.00737228614795
100
AcDbArc
 50
270.4175730096
 51
0.4465696916
  0
ARC
  5
100
330
1F
100
AcDbEntity
  8
0
  6
Continuous
 62
     7
370
    25
100
AcDbCircle
 10
-56.00765625
 20
4.9923446143
 30
0.0
 40
1.007684471692725
100
AcDbArc
 50
359.5711870522
 51
89.5646702466
  0
ARC
  5
101
330
1F
100
AcDbEntity
  8
0
  6
Continuous
 62
     8
370
    25
100
AcDbCircle
 10
55.9962502029
 20
-4.0944387806
 30
0.0
 40
1.000401689039711
100
AcDbArc
 50
204.6336173303
 51
270.2147617843
  0
ARC
  5
102
330
1F
100
AcDbEntity
  8
0
  6
Continuous
 62
     8
370
    25
100
AcDbCircle
 10
-55.9962555691
 20
-4.0944210326
 30
0.0
 40
1.000419416829038
100
AcDbArc
 50
269.7855493588
 51
335.2935889963
  0
ARC
  5
103
330
1F
100
AcDbEntity
  8
0
  6
Continuous
 62
     8
370
    25
100
AcDbCircle
 10
55.9962555691
 20
4.0944210326
 30
0.0
 40
1.000419416829034
100
AcDbArc
 50
89.7855493588
 51
155.2935889963
  0
ARC
  5
104
330
1F
100
AcDbEntity
  8
0
  6
Continuous
 62
     8
370
    25
100
AcDbCircle
 10
-55.9962502029
 20
4.0944387806
 30
0.0
 40
1.000401689039703
100
AcDbArc
 50
24.6336173303
 51
90.2147617843
  0
LINE
  5
127
330
1B
100
AcDbEntity
 67
     1
  8
0
  6
Continuous
 62
     7
370
    25
100
AcDbLine
 10
100.9235184373
 20
-12.3552009571
 30
0.0
 11
104.0123186765
 21
0.0
 31
0.0
  0
LINE
  5
128
330
1B
100
AcDbEntity
 67
     1
  8
0
  6
Continuous
 62
     7
370
    25
100
AcDbLine
 10
-92.192235936
 20
-19.1723803318
 30
0.0
 11
92.192235936
 21
-19.1723803318
 31
0.0
  0
LINE
  5
129
330
1B
100
AcDbEntity
 67
     1
  8
0
  6
Continuous
 62
     7
370
    25
100
AcDbLine
 10
-104.0123186765
 20
0.0
 30
0.0
 11
-100.9235184373
 21
-12.3552009571
 31
0.0
  0
LINE
  5
12A
330
1B
100
AcDbEntity
 67
     1
  8
0
  6
Continuous
 62
     7
370
    25
100
AcDbLine
 10
-55.0
 20
0.0
 30
0.0
 11
-105.0
 21
0.0
 31
0.0
  0
LINE
  5
12B
330
1B
100
AcDbEntity
 67
     1
  8
0
  6
Continuous
 62
     7
370
    25
100
AcDbLine
 10
-56.0
 20
-5.1723803318
 30
0.0
 11
-56.0
 21
0.0
 31
0.0
  0
LINE
  5
12C
330
1B
100
AcDbEntity
 67
     1
  8
0
  6
Continuous
 62
     7
370
    25
100
AcDbLine
 10
45.0
 20
-16.1723803318
 30
0.0
 11
-45.0
 21
-16.1723803318
 31
0.0
  0
LINE
  5
12D
330
1B
100
AcDbEntity
 67
     1
  8
0
  6
Continuous
 62
     7
370
    25
100
AcDbLine
 10
56.0
 20
0.0
 30
0.0
 11
56.0
 21
-5.1723803318
 31
0.0
  0
LINE
  5
12E
330
1B
100
AcDbEntity
 67
     1
  8
0
  6
Continuous
 62
     7
370
    25
100
AcDbLine
 10
105.0
 20
0.0
 30
0.0
 11
55.0
 21
0.0
 31
0.0
  0
LINE
  5
12F
330
1B
100
AcDbEntity
 67
     1
  8
0
  6
Continuous
 62
     7
370
    25
100
AcDbLine
 10
-101.8936609374
 20
-12.4253562504
 30
0.0
 11
-105.0
 21
0.0
 31
0.0
  0
LINE
  5
130
330
1B
100
AcDbEntity
 67
     1
  8
0
  6
Continuous
 62
     7
370
    25
100
AcDbLine
 10
-55.0
 20
0.0
 30
0.0
 11
-55.0
 21
-5.0
 31
0.0
  0
LINE
  5
131
330
1B
100
AcDbEntity
 67
     1
  8
0
  6
Continuous
 62
     7
370
    25
100
AcDbLine
 10
55.0
 20
-5.0
 30
0.0
 11
55.0
 21
0.0
 31
0.0
  0
LINE
  5
132
330
1B
100
AcDbEntity
 67
     1
  8
0
  6
Continuous
 62
     7
370
    25
100
AcDbLine
 10
105.0
 20
0.0
 30
0.0
 11
101.8936609374
 21
-12.4253562504
 31
0.0
  0
LINE
  5
133
330
1B
100
AcDbEntity
 67
     1
  8
0
  6
Continuous
 62
     7
370
    25
100
AcDbLine
 10
-45.0
 20
-15.0
 30
0.0
 11
-45.0
 21
-16.1723803318
 31
0.0
  0
LINE
  5
134
330
1B
100
AcDbEntity
 67
     1
  8
0
  6
Continuous
 62
     7
370
    25
100
AcDbLine
 10
45.0
 20
-15.0
 30
0.0
 11
45.0
 21
-16.1723803318
 31
0.0
  0
LINE
  5
135
330
1B
100
AcDbEntity
 67
     1
  8
0
  6
Continuous
 62
     7
370
    25
100
AcDbLine
 10
-92.192235936
 20
-20.0
 30
0.0
 11
-92.192235936
 21
-19.1723803318
 31
0.0
  0
LINE
  5
136
330
1B
100
AcDbEntity
 67
     1
  8
0
  6
Continuous
 62
     7
370
    25
100
AcDbLine
 10
92.192235936
 20
-20.0
 30
0.0
 11
92.192235936
 21
-19.1723803318
 31
0.0
  0
LINE
  5
137
330
1B
100
AcDbEntity
 67
     1
  8
0
  6
Continuous
 62
     7
370
    25
100
AcDbLine
 10
-45.0
 20
-15.0
 30
0.0
 11
45.0
 21
-15.0
 31
0.0
  0
LINE
  5
138
330
1B
100
AcDbEntity
 67
     1
  8
0
  6
Continuous
 62
     7
370
    25
100
AcDbLine
 10
92.192235936
 20
-20.0
 30
0.0
 11
-92.192235936
 21
-20.0
 31
0.0
  0
ARC
  5
139
330
1B
100
AcDbEntity
 67
     1
  8
0
  6
Continuous
 62
     7
370
    25
100
AcDbCircle
 10
92.192235936
 20
-10.1723803318
 30
0.0
 40
8.999999999999995
100
AcDbArc
 50
270.0
 51
345.9637565321
  0
ARC
  5
13A
330
1B
100
AcDbEntity
 67
     1
  8
0
  6
Continuous
 62
     7
370
    25
100
AcDbCircle
 10
-92.192235936
 20
-10.1723803318
 30
0.0
 40
8.999999999999977
100
AcDbArc
 50
194.0362434679
 51
270.0
  0
ARC
  5
13B
330
1B
100
AcDbEntity
 67
     1
  8
0
  6
Continuous
 62
     7
370
    25
100
AcDbCircle
 10
-45.0
 20
-5.1723803318
 30
0.0
 40
10.99999999999999
100
AcDbArc
 50
180.0
 51
270.0
  0
ARC
  5
13C
330
1B
100
AcDbEntity
 67
     1
  8
0
  6
Continuous
 62
     7
370
    25
100
AcDbCircle
 10
45.0
 20
-5.1723803318
 30
0.0
 40
10.99999999999999
100
AcDbArc
 50
270.0
 51
0.0
  0
ARC
  5
13D
330
1B
100
AcDbEntity
 67
     1
  8
0
  6
Continuous
 62
     7
370
    25
100
AcDbCircle
 10
-101.515055813
 20
-10.9180117438
 30
0.0
 40
1.554165146206373
100
AcDbArc
 50
255.9004879114
 51
292.3717348761
  0
ARC
  5
13E
330
1B
100
AcDbEntity
 67
     1
  8
0
  6
Continuous
 62
     7
370
    25
100
AcDbCircle
 10
-55.7574287447
 20
-3.5928136183
 30
0.0
 40
1.598083795047183
100
AcDbArc
 50
261.2693943887
 51
298.2916959581
  0
ARC
  5
13F
330
1B
100
AcDbEntity
 67
     1
  8
0
  6
Continuous
 62
     7
370
    25
100
AcDbCircle
 10
55.7574287447
 20
-3.5928136183
 30
0.0
 40
1.598083795047192
100
AcDbArc
 50
241.7083040419
 51
278.7306056113
  0
ARC
  5
140
330
1B
100
AcDbEntity
 67
     1
  8
0
  6
Continuous
 62
     7
370
    25
100
AcDbCircle
 10
101.515055813
 20
-10.9180117438
 30
0.0
 40
1.554165146206393
100
AcDbArc
 50
247.6282651239
 51
284.0995120886
  0
ARC
  5
141
330
1B
100
AcDbEntity
 67
     1
  8
0
  6
Continuous
 62
     7
370
    25
100
AcDbCircle
 10
-45.0
 20
-5.0
 30
0.0
 40
10.0
100
AcDbArc
 50
180.0
 51
270.0
  0
ARC
  5
142
330
1B
100
AcDbEntity
 67
     1
  8
0
  6
Continuous
 62
     7
370
    25
100
AcDbCircle
 10
45.0
 20
-5.0
 30
0.0
 40
10.00000000000001
100
AcDbArc
 50
270.0
 51
0.0
  0
ARC
  5
143
330
1B
100
AcDbEntity
 67
     1
  8
0
  6
Continuous
 62
     7
370
    25
100
AcDbCircle
 10
-92.192235936
 20
-10.0
 30
0.0
 40
10.00000000000005
100
AcDbArc
 50
194.0362434679
 51
270.0
  0
ARC
  5
144
330
1B
100
AcDbEntity
 67
     1
  8
0
  6
Continuous
 62
     7
370
    25
100
AcDbCircle
 10
92.192235936
 20
-10.0
 30
0.0
 40
10.00000000000001
100
AcDbArc
 50
270.0
 51
345.9637565321
  0
VIEWPORT
  5
35A
330
1B
100
AcDbEntity
 67
     1
  8
0
100
AcDbViewport
 10
0.0
 20
0.0
 30
0.0
 40
205.6
 41
156.0
 68
     1
 69
     1
 12
0.0
 22
0.0
 13
0.0
 23
0.0
 14
10.0
 24
10.0
 15
10.0
 25
10.0
 16
0.0
 26
0.0
 36
1.0
 17
0.0
 27
0.0
 37
0.0
 42
50.0
 43
0.0
 44
0.0
 45
162.5252918288
 50
0.0
 51
0.0
 72
   100
 90
   557152
  1

281
     0
 71
     1
 74
     0
110
0.0
120
0.0
130
0.0
111
1.0
121
0.0
131
0.0
112
0.0
122
1.0
132
0.0
 79
     0
146
0.0
  0
ENDSEC
  0
SECTION
  2
OBJECTS
  0
DICTIONARY
  5
C
330
0
100
AcDbDictionary
281
     1
  3
ACAD_GROUP
350
D
  3
ACAD_LAYOUT
350
1A
  3
ACAD_MLINESTYLE
350
17
  3
ACAD_PLOTSETTINGS
350
19
  3
ACAD_PLOTSTYLENAME
350
E
  3
ACAD_SCALELIST
350
47
  0
DICTIONARY
  5
D
102
{ACAD_REACTORS
330
C
102
}
330
C
100
AcDbDictionary
281
     1
  0
DICTIONARY
  5
1A
102
{ACAD_REACTORS
330
C
102
}
330
C
100
AcDbDictionary
281
     1
  3
_Back
350
26
  3
_Bottom
350
1C8
  3
_Dimetric
350
2F5
  3
_Isometric
350
20C
  3
_Left
350
184
  3
_Right
350
1A6
  3
_Top
350
1E
  3
_Trimetric
350
287
  3
Model
350
22
  0
DICTIONARY
  5
17
102
{ACAD_REACTORS
330
C
102
}
330
C
100
AcDbDictionary
281
     1
  3
Standard
350
18
  0
DICTIONARY
  5
19
102
{ACAD_REACTORS
330
C
102
}
330
C
100
AcDbDictionary
281
     1
  0
ACDBDICTIONARYWDFLT
  5
E
102
{ACAD_REACTORS
330
C
102
}
330
C
100
AcDbDictionary
281
     1
  3
Normal
350
F
100
AcDbDictionaryWithDefault
340
F
  0
DICTIONARY
  5
47
102
{ACAD_REACTORS
330
C
102
}
330
C
100
AcDbDictionary
281
     1
  3
A0
350
48
  3
A1
350
49
  3
A2
350
4A
  3
A3
350
4B
  3
A4
350
4C
  3
A5
350
4D
  3
A6
350
4E
  3
A7
350
4F
  3
A8
350
50
  3
A9
350
51
  3
B0
350
52
  3
B1
350
53
  3
B2
350
54
  3
B3
350
55
  3
B4
350
56
  3
B5
350
57
  3
B6
350
58
  3
B7
350
59
  3
B8
350
5A
  3
B9
350
5B
  3
C0
350
5C
  3
C1
350
5D
  3
C2
350
5E
  3
C3
350
5F
  3
C4
350
60
  3
C5
350
61
  3
C6
350
62
  3
C7
350
63
  3
C8
350
64
  3
C9
350
65
  3
D0
350
66
  3
D1
350
67
  3
D2
350
68
  0
LAYOUT
  5
26
102
{ACAD_REACTORS
330
1A
102
}
330
1A
100
AcDbPlotSettings
  1

  2
none_device
  4
ISO_A4_(210.00_x_297.00_MM)
  6

 40
7.5
 41
20.0
 42
7.5
 43
20.0
 44
210.0
 45
297.0
 46
0.0
 47
0.0
 48
0.0
 49
0.0
140
0.0
141
0.0
142
1.0
143
0.8171206226
 70
   688
 72
     1
 73
     1
 74
     1
  7

 75
     0
147
1.2238095238
148
105.0
149
20.0
100
AcDbLayout
  1
_Back
 70
     1
 71
     2
 10
0.0
 20
0.0
 11
0.0
 21
0.0
 12
0.0
 22
0.0
 32
0.0
 14
0.0
 24
0.0
 34
0.0
 15
0.0
 25
0.0
 35
0.0
146
0.0
 13
0.0
 23
0.0
 33
0.0
 16
1.0
 26
0.0
 36
0.0
 17
0.0
 27
1.0
 37
0.0
 76
     0
330
23
331
35C
  0
LAYOUT
  5
1C8
102
{ACAD_REACTORS
330
1A
102
}
330
1A
100
AcDbPlotSettings
  1

  2
none_device
  4
ISO_A4_(210.00_x_297.00_MM)
  6

 40
7.5
 41
20.0
 42
7.5
 43
20.0
 44
210.0
 45
297.0
 46
0.0
 47
0.0
 48
0.0
 49
0.0
140
0.0
141
0.0
142
1.0
143
0.8171206226
 70
   688
 72
     1
 73
     1
 74
     1
  7

 75
     0
147
1.2238095238
148
105.0
149
20.0
100
AcDbLayout
  1
_Bottom
 70
     1
 71
     5
 10
0.0
 20
0.0
 11
0.0
 21
0.0
 12
0.0
 22
0.0
 32
0.0
 14
0.0
 24
0.0
 34
0.0
 15
0.0
 25
0.0
 35
0.0
146
0.0
 13
0.0
 23
0.0
 33
0.0
 16
1.0
 26
0.0
 36
0.0
 17
0.0
 27
1.0
 37
0.0
 76
     0
330
1C7
331
362
  0
LAYOUT
  5
2F5
102
{ACAD_REACTORS
330
1A
102
}
330
1A
100
AcDbPlotSettings
  1

  2
none_device
  4
ISO_A4_(210.00_x_297.00_MM)
  6

 40
7.5
 41
20.0
 42
7.5
 43
20.0
 44
210.0
 45
297.0
 46
0.0
 47
0.0
 48
0.0
 49
0.0
140
0.0
141
0.0
142
1.0
143
0.8171206226
 70
   688
 72
     1
 73
     1
 74
     1
  7

 75
     0
147
1.2238095238
148
105.0
149
20.0
100
AcDbLayout
  1
_Dimetric
 70
     1
 71
     8
 10
0.0
 20
0.0
 11
0.0
 21
0.0
 12
0.0
 22
0.0
 32
0.0
 14
0.0
 24
0.0
 34
0.0
 15
0.0
 25
0.0
 35
0.0
146
0.0
 13
0.0
 23
0.0
 33
0.0
 16
1.0
 26
0.0
 36
0.0
 17
0.0
 27
1.0
 37
0.0
 76
     0
330
2F4
331
368
  0
LAYOUT
  5
20C
102
{ACAD_REACTORS
330
1A
102
}
330
1A
100
AcDbPlotSettings
  1

  2
none_device
  4
ISO_A4_(210.00_x_297.00_MM)
  6

 40
7.5
 41
20.0
 42
7.5
 43
20.0
 44
210.0
 45
297.0
 46
0.0
 47
0.0
 48
0.0
 49
0.0
140
0.0
141
0.0
142
1.0
143
0.8171206226
 70
   688
 72
     1
 73
     1
 74
     1
  7

 75
     0
147
1.2238095238
148
105.0
149
20.0
100
AcDbLayout
  1
_Isometric
 70
     1
 71
     6
 10
0.0
 20
0.0
 11
0.0
 21
0.0
 12
0.0
 22
0.0
 32
0.0
 14
0.0
 24
0.0
 34
0.0
 15
0.0
 25
0.0
 35
0.0
146
0.0
 13
0.0
 23
0.0
 33
0.0
 16
1.0
 26
0.0
 36
0.0
 17
0.0
 27
1.0
 37
0.0
 76
     0
330
20B
331
364
  0
LAYOUT
  5
184
102
{ACAD_REACTORS
330
1A
102
}
330
1A
100
AcDbPlotSettings
  1

  2
none_device
  4
ISO_A4_(210.00_x_297.00_MM)
  6

 40
7.5
 41
20.0
 42
7.5
 43
20.0
 44
210.0
 45
297.0
 46
0.0
 47
0.0
 48
0.0
 49
0.0
140
0.0
141
0.0
142
1.0
143
0.8171206226
 70
   688
 72
     1
 73
     1
 74
     1
  7

 75
     0
147
1.2238095238
148
105.0
149
20.0
100
AcDbLayout
  1
_Left
 70
     1
 71
     3
 10
0.0
 20
0.0
 11
0.0
 21
0.0
 12
0.0
 22
0.0
 32
0.0
 14
0.0
 24
0.0
 34
0.0
 15
0.0
 25
0.0
 35
0.0
146
0.0
 13
0.0
 23
0.0
 33
0.0
 16
1.0
 26
0.0
 36
0.0
 17
0.0
 27
1.0
 37
0.0
 76
     0
330
183
331
35E
  0
LAYOUT
  5
1A6
102
{ACAD_REACTORS
330
1A
102
}
330
1A
100
AcDbPlotSettings
  1

  2
none_device
  4
ISO_A4_(210.00_x_297.00_MM)
  6

 40
7.5
 41
20.0
 42
7.5
 43
20.0
 44
210.0
 45
297.0
 46
0.0
 47
0.0
 48
0.0
 49
0.0
140
0.0
141
0.0
142
1.0
143
0.8171206226
 70
   688
 72
     1
 73
     1
 74
     1
  7

 75
     0
147
1.2238095238
148
105.0
149
20.0
100
AcDbLayout
  1
_Right
 70
     1
 71
     4
 10
0.0
 20
0.0
 11
0.0
 21
0.0
 12
0.0
 22
0.0
 32
0.0
 14
0.0
 24
0.0
 34
0.0
 15
0.0
 25
0.0
 35
0.0
146
0.0
 13
0.0
 23
0.0
 33
0.0
 16
1.0
 26
0.0
 36
0.0
 17
0.0
 27
1.0
 37
0.0
 76
     0
330
1A5
331
360
  0
LAYOUT
  5
1E
102
{ACAD_REACTORS
330
1A
102
}
330
1A
100
AcDbPlotSettings
  1

  2
none_device
  4
ISO_A4_(210.00_x_297.00_MM)
  6

 40
7.5
 41
20.0
 42
7.5
 43
20.0
 44
210.0
 45
297.0
 46
0.0
 47
0.0
 48
0.0
 49
0.0
140
0.0
141
0.0
142
1.0
143
0.8171206226
 70
   688
 72
     1
 73
     1
 74
     1
  7

 75
     0
147
1.2238095238
148
105.0
149
20.0
100
AcDbLayout
  1
_Top
 70
     1
 71
     1
 10
-121.3424124514
 20
-26.1284046693
 11
121.3424124514
 21
145.46692607
 12
0.0
 22
0.0
 32
0.0
 14
-105.0
 24
-20.0
 34
0.0
 15
105.0
 25
0.0
 35
0.0
146
0.0
 13
0.0
 23
0.0
 33
0.0
 16
1.0
 26
0.0
 36
0.0
 17
0.0
 27
1.0
 37
0.0
 76
     0
330
1B
331
35A
  0
LAYOUT
  5
287
102
{ACAD_REACTORS
330
1A
102
}
330
1A
100
AcDbPlotSettings
  1

  2
none_device
  4
ISO_A4_(210.00_x_297.00_MM)
  6

 40
7.5
 41
20.0
 42
7.5
 43
20.0
 44
210.0
 45
297.0
 46
0.0
 47
0.0
 48
0.0
 49
0.0
140
0.0
141
0.0
142
1.0
143
0.8171206226
 70
   688
 72
     1
 73
     1
 74
     1
  7

 75
     0
147
1.2238095238
148
105.0
149
20.0
100
AcDbLayout
  1
_Trimetric
 70
     1
 71
     7
 10
0.0
 20
0.0
 11
0.0
 21
0.0
 12
0.0
 22
0.0
 32
0.0
 14
0.0
 24
0.0
 34
0.0
 15
0.0
 25
0.0
 35
0.0
146
0.0
 13
0.0
 23
0.0
 33
0.0
 16
1.0
 26
0.0
 36
0.0
 17
0.0
 27
1.0
 37
0.0
 76
     0
330
286
331
366
  0
LAYOUT
  5
22
102
{ACAD_REACTORS
330
1A
102
}
330
1A
100
AcDbPlotSettings
  1

  2
none_device
  4
ANSI_A_(11.00_x_8.50_Inches)
  6

 40
6.35
 41
19.05
 42
6.35000508
 43
19.05000254
 44
279.4
 45
215.9
 46
133.34999746
 47
88.89999873
 48
0.0
 49
0.0
140
0.0
141
0.0
142
0.0518571429
143
1.0
 70
  1696
 72
     0
 73
     0
 74
     0
  7

 75
     0
147
0.0179189148
148
-1300.4909072572
149
0.0
100
AcDbLayout
  1
Model
 70
     1
 71
     0
 10
0.0
 20
0.0
 11
420.0
 21
297.0
 12
0.0
 22
0.0
 32
0.0
 14
-105.0
 24
-6.000103215
 34
0.0
 15
105.0
 25
6.000103215
 35
0.0
146
0.0
 13
0.0
 23
0.0
 33
0.0
 16
1.0
 26
0.0
 36
0.0
 17
0.0
 27
1.0
 37
0.0
 76
     0
330
1F
331
29
  0
MLINESTYLE
  5
18
102
{ACAD_REACTORS
330
17
102
}
330
17
100
AcDbMlineStyle
  2
Standard
 70
     0
  3

 62
   256
 51
90.0
 52
90.0
 71
     2
 49
0.5
 62
   256
  6
BYLAYER
 49
-0.5
 62
   256
  6
BYLAYER
  0
ACDBPLACEHOLDER
  5
F
102
{ACAD_REACTORS
330
E
102
}
330
E
  0
SCALE
  5
48
102
{ACAD_REACTORS
330
47
102
}
330
47
100
AcDbScale
 70
     0
300
1:1
140
1.0
141
1.0
290
     1
  0
SCALE
  5
49
102
{ACAD_REACTORS
330
47
102
}
330
47
100
AcDbScale
 70
     0
300
1:2
140
1.0
141
2.0
290
     0
  0
SCALE
  5
4A
102
{ACAD_REACTORS
330
47
102
}
330
47
100
AcDbScale
 70
     0
300
1:4
140
1.0
141
4.0
290
     0
  0
SCALE
  5
4B
102
{ACAD_REACTORS
330
47
102
}
330
47
100
AcDbScale
 70
     0
300
1:5
140
1.0
141
5.0
290
     0
  0
SCALE
  5
4C
102
{ACAD_REACTORS
330
47
102
}
330
47
100
AcDbScale
 70
     0
300
1:8
140
1.0
141
8.0
290
     0
  0
SCALE
  5
4D
102
{ACAD_REACTORS
330
47
102
}
330
47
100
AcDbScale
 70
     0
300
1:10
140
1.0
141
10.0
290
     0
  0
SCALE
  5
4E
102
{ACAD_REACTORS
330
47
102
}
330
47
100
AcDbScale
 70
     0
300
1:16
140
1.0
141
16.0
290
     0
  0
SCALE
  5
4F
102
{ACAD_REACTORS
330
47
102
}
330
47
100
AcDbScale
 70
     0
300
1:20
140
1.0
141
20.0
290
     0
  0
SCALE
  5
50
102
{ACAD_REACTORS
330
47
102
}
330
47
100
AcDbScale
 70
     0
300
1:30
140
1.0
141
30.0
290
     0
  0
SCALE
  5
51
102
{ACAD_REACTORS
330
47
102
}
330
47
100
AcDbScale
 70
     0
300
1:40
140
1.0
141
40.0
290
     0
  0
SCALE
  5
52
102
{ACAD_REACTORS
330
47
102
}
330
47
100
AcDbScale
 70
     0
300
1:50
140
1.0
141
50.0
290
     0
  0
SCALE
  5
53
102
{ACAD_REACTORS
330
47
102
}
330
47
100
AcDbScale
 70
     0
300
1:100
140
1.0
141
100.0
290
     0
  0
SCALE
  5
54
102
{ACAD_REACTORS
330
47
102
}
330
47
100
AcDbScale
 70
     0
300
2:1
140
2.0
141
1.0
290
     0
  0
SCALE
  5
55
102
{ACAD_REACTORS
330
47
102
}
330
47
100
AcDbScale
 70
     0
300
4:1
140
4.0
141
1.0
290
     0
  0
SCALE
  5
56
102
{ACAD_REACTORS
330
47
102
}
330
47
100
AcDbScale
 70
     0
300
8:1
140
8.0
141
1.0
290
     0
  0
SCALE
  5
57
102
{ACAD_REACTORS
330
47
102
}
330
47
100
AcDbScale
 70
     0
300
10:1
140
10.0
141
1.0
290
     0
  0
SCALE
  5
58
102
{ACAD_REACTORS
330
47
102
}
330
47
100
AcDbScale
 70
     0
300
100:1
140
100.0
141
1.0
290
     0
  0
SCALE
  5
59
102
{ACAD_REACTORS
330
47
102
}
330
47
100
AcDbScale
 70
     0
300
1/128" = 1'-0"
140
0.0078125
141
12.0
290
     0
  0
SCALE
  5
5A
102
{ACAD_REACTORS
330
47
102
}
330
47
100
AcDbScale
 70
     0
300
1/64" = 1'-0"
140
0.015625
141
12.0
290
     0
  0
SCALE
  5
5B
102
{ACAD_REACTORS
330
47
102
}
330
47
100
AcDbScale
 70
     0
300
1/32" = 1'-0"
140
0.03125
141
12.0
290
     0
  0
SCALE
  5
5C
102
{ACAD_REACTORS
330
47
102
}
330
47
100
AcDbScale
 70
     0
300
1/16" = 1'-0"
140
0.0625
141
12.0
290
     0
  0
SCALE
  5
5D
102
{ACAD_REACTORS
330
47
102
}
330
47
100
AcDbScale
 70
     0
300
3/32" = 1'-0"
140
0.09375
141
12.0
290
     0
  0
SCALE
  5
5E
102
{ACAD_REACTORS
330
47
102
}
330
47
100
AcDbScale
 70
     0
300
1/8" = 1'-0"
140
0.125
141
12.0
290
     0
  0
SCALE
  5
5F
102
{ACAD_REACTORS
330
47
102
}
330
47
100
AcDbScale
 70
     0
300
3/16" = 1'-0"
140
0.1875
141
12.0
290
     0
  0
SCALE
  5
60
102
{ACAD_REACTORS
330
47
102
}
330
47
100
AcDbScale
 70
     0
300
1/4" = 1'-0"
140
0.25
141
12.0
290
     0
  0
SCALE
  5
61
102
{ACAD_REACTORS
330
47
102
}
330
47
100
AcDbScale
 70
     0
300
3/8" = 1'-0"
140
0.375
141
12.0
290
     0
  0
SCALE
  5
62
102
{ACAD_REACTORS
330
47
102
}
330
47
100
AcDbScale
 70
     0
300
1/2" = 1'-0"
140
0.5
141
12.0
290
     0
  0
SCALE
  5
63
102
{ACAD_REACTORS
330
47
102
}
330
47
100
AcDbScale
 70
     0
300
3/4" = 1'-0"
140
0.75
141
12.0
290
     0
  0
SCALE
  5
64
102
{ACAD_REACTORS
330
47
102
}
330
47
100
AcDbScale
 70
     0
300
1" = 1'-0"
140
1.0
141
12.0
290
     0
  0
SCALE
  5
65
102
{ACAD_REACTORS
330
47
102
}
330
47
100
AcDbScale
 70
     0
300
1-1/2" = 1'-0"
140
1.5
141
12.0
290
     0
  0
SCALE
  5
66
102
{ACAD_REACTORS
330
47
102
}
330
47
100
AcDbScale
 70
     0
300
3" = 1'-0"
140
3.0
141
12.0
290
     0
  0
SCALE
  5
67
102
{ACAD_REACTORS
330
47
102
}
330
47
100
AcDbScale
 70
     0
300
6" = 1'-0"
140
6.0
141
12.0
290
     0
  0
SCALE
  5
68
102
{ACAD_REACTORS
330
47
102
}
330
47
100
AcDbScale
 70
     0
300
1'-0" = 1'-0"
140
12.0
141
12.0
290
     0
  0
ENDSEC
  0
EOF
